  0
SECTION
  2
HEADER
  9
$ACADVER
  1
AC1015
  9
$ACADMAINTVER
 70
     6
  9
$DWGCODEPAGE
  3
ANSI_1252
  9
$INSBASE
 10
0.0
 20
0.0
 30
0.0
  9
$EXTMIN
 10
-0.1385387034398491
 20
-0.0000326830308821
 30
0.0
  9
$EXTMAX
 10
15.18114359694891
 20
7.719995881390958
 30
0.0
  9
$LIMMIN
 10
0.0
 20
0.0
  9
$LIMMAX
 10
9.0
 20
12.0
  9
$ORTHOMODE
 70
     1
  9
$REGENMODE
 70
     1
  9
$FILLMODE
 70
     1
  9
$QTEXTMODE
 70
     0
  9
$MIRRTEXT
 70
     1
  9
$LTSCALE
 40
1.0
  9
$ATTMODE
 70
     1
  9
$TEXTSIZE
 40
0.1377952755905512
  9
$TRACEWID
 40
0.05
  9
$TEXTSTYLE
  7
TXT
  9
$CLAYER
  8
0
  9
$CELTYPE
  6
CONTINUOUS
  9
$CECOLOR
 62
   256
  9
$CELTSCALE
 40
1.0
  9
$DISPSILH
 70
     0
  9
$DIMSCALE
 40
1.0
  9
$DIMASZ
 40
0.1377952755905512
  9
$DIMEXO
 40
0.0625
  9
$DIMDLI
 40
0.38
  9
$DIMRND
 40
0.0
  9
$DIMDLE
 40
0.0
  9
$DIMEXE
 40
0.18
  9
$DIMTP
 40
0.0
  9
$DIMTM
 40
0.0
  9
$DIMTXT
 40
0.1377952755905512
  9
$DIMCEN
 40
0.09
  9
$DIMTSZ
 40
0.0
  9
$DIMTOL
 70
     0
  9
$DIMLIM
 70
     0
  9
$DIMTIH
 70
     1
  9
$DIMTOH
 70
     1
  9
$DIMSE1
 70
     0
  9
$DIMSE2
 70
     0
  9
$DIMTAD
 70
     0
  9
$DIMZIN
 70
     0
  9
$DIMBLK
  1

  9
$DIMASO
 70
     1
  9
$DIMSHO
 70
     1
  9
$DIMPOST
  1

  9
$DIMAPOST
  1

  9
$DIMALT
 70
     0
  9
$DIMALTD
 70
     2
  9
$DIMALTF
 40
25.4
  9
$DIMLFAC
 40
1.0
  9
$DIMTOFL
 70
     0
  9
$DIMTVP
 40
0.0
  9
$DIMTIX
 70
     0
  9
$DIMSOXD
 70
     0
  9
$DIMSAH
 70
     0
  9
$DIMBLK1
  1

  9
$DIMBLK2
  1

  9
$DIMSTYLE
  2
STANDARD
  9
$DIMCLRD
 70
     0
  9
$DIMCLRE
 70
     0
  9
$DIMCLRT
 70
     0
  9
$DIMTFAC
 40
1.0
  9
$DIMGAP
 40
0.09
  9
$DIMJUST
 70
     0
  9
$DIMSD1
 70
     0
  9
$DIMSD2
 70
     0
  9
$DIMTOLJ
 70
     1
  9
$DIMTZIN
 70
     0
  9
$DIMALTZ
 70
     0
  9
$DIMALTTZ
 70
     0
  9
$DIMUPT
 70
     0
  9
$DIMDEC
 70
     4
  9
$DIMTDEC
 70
     4
  9
$DIMALTU
 70
     2
  9
$DIMALTTD
 70
     2
  9
$DIMTXSTY
  7
TXT
  9
$DIMAUNIT
 70
     0
  9
$DIMADEC
 70
     0
  9
$DIMALTRND
 40
0.0
  9
$DIMAZIN
 70
     0
  9
$DIMDSEP
 70
    46
  9
$DIMATFIT
 70
     3
  9
$DIMFRAC
 70
     0
  9
$DIMLDRBLK
  1

  9
$DIMLUNIT
 70
     2
  9
$DIMLWD
 70
    -2
  9
$DIMLWE
 70
    -2
  9
$DIMTMOVE
 70
     0
  9
$LUNITS
 70
     2
  9
$LUPREC
 70
     3
  9
$SKETCHINC
 40
0.1
  9
$FILLETRAD
 40
0.0
  9
$AUNITS
 70
     0
  9
$AUPREC
 70
     3
  9
$MENU
  1
acad
  9
$ELEVATION
 40
0.0
  9
$PELEVATION
 40
0.0
  9
$THICKNESS
 40
0.0
  9
$LIMCHECK
 70
     0
  9
$CHAMFERA
 40
0.0
  9
$CHAMFERB
 40
0.0
  9
$CHAMFERC
 40
0.0
  9
$CHAMFERD
 40
0.0
  9
$SKPOLY
 70
     0
  9
$TDCREATE
 40
2444971.666666666
  9
$TDUCREATE
 40
2444972.000000000
  9
$TDUPDATE
 40
2452655.520805555
  9
$TDUUPDATE
 40
2452655.854138888
  9
$TDINDWG
 40
0.0678532639
  9
$TDUSRTIMER
 40
0.0678532639
  9
$USRTIMER
 70
     1
  9
$ANGBASE
 50
0.0
  9
$ANGDIR
 70
     0
  9
$PDMODE
 70
     2
  9
$PDSIZE
 40
0.0196850393700788
  9
$PLINEWID
 40
0.0
  9
$SPLFRAME
 70
     0
  9
$SPLINETYPE
 70
     6
  9
$SPLINESEGS
 70
     8
  9
$HANDSEED
  5
CE2
  9
$SURFTAB1
 70
     6
  9
$SURFTAB2
 70
     6
  9
$SURFTYPE
 70
     6
  9
$SURFU
 70
     6
  9
$SURFV
 70
     6
  9
$UCSBASE
  2

  9
$UCSNAME
  2

  9
$UCSORG
 10
0.0
 20
0.0
 30
0.0
  9
$UCSXDIR
 10
1.0
 20
0.0
 30
0.0
  9
$UCSYDIR
 10
0.0
 20
1.0
 30
0.0
  9
$UCSORTHOREF
  2

  9
$UCSORTHOVIEW
 70
     0
  9
$UCSORGTOP
 10
0.0
 20
0.0
 30
0.0
  9
$UCSORGBOTTOM
 10
0.0
 20
0.0
 30
0.0
  9
$UCSORGLEFT
 10
0.0
 20
0.0
 30
0.0
  9
$UCSORGRIGHT
 10
0.0
 20
0.0
 30
0.0
  9
$UCSORGFRONT
 10
0.0
 20
0.0
 30
0.0
  9
$UCSORGBACK
 10
0.0
 20
0.0
 30
0.0
  9
$PUCSBASE
  2

  9
$PUCSNAME
  2

  9
$PUCSORG
 10
0.0
 20
0.0
 30
0.0
  9
$PUCSXDIR
 10
1.0
 20
0.0
 30
0.0
  9
$PUCSYDIR
 10
0.0
 20
1.0
 30
0.0
  9
$PUCSORTHOREF
  2

  9
$PUCSORTHOVIEW
 70
     0
  9
$PUCSORGTOP
 10
0.0
 20
0.0
 30
0.0
  9
$PUCSORGBOTTOM
 10
0.0
 20
0.0
 30
0.0
  9
$PUCSORGLEFT
 10
0.0
 20
0.0
 30
0.0
  9
$PUCSORGRIGHT
 10
0.0
 20
0.0
 30
0.0
  9
$PUCSORGFRONT
 10
0.0
 20
0.0
 30
0.0
  9
$PUCSORGBACK
 10
0.0
 20
0.0
 30
0.0
  9
$USERI1
 70
     0
  9
$USERI2
 70
     0
  9
$USERI3
 70
     0
  9
$USERI4
 70
     0
  9
$USERI5
 70
     0
  9
$USERR1
 40
0.0
  9
$USERR2
 40
0.0
  9
$USERR3
 40
0.0
  9
$USERR4
 40
0.0
  9
$USERR5
 40
0.0
  9
$WORLDVIEW
 70
     1
  9
$SHADEDGE
 70
     3
  9
$SHADEDIF
 70
    70
  9
$TILEMODE
 70
     1
  9
$MAXACTVP
 70
    16
  9
$PINSBASE
 10
0.0
 20
0.0
 30
0.0
  9
$PLIMCHECK
 70
     0
  9
$PEXTMIN
 10
1.000000000000000E+20
 20
1.000000000000000E+20
 30
1.000000000000000E+20
  9
$PEXTMAX
 10
-1.000000000000000E+20
 20
-1.000000000000000E+20
 30
-1.000000000000000E+20
  9
$PLIMMIN
 10
0.0
 20
0.0
  9
$PLIMMAX
 10
12.0
 20
9.0
  9
$UNITMODE
 70
     0
  9
$VISRETAIN
 70
     0
  9
$PLINEGEN
 70
     1
  9
$PSLTSCALE
 70
     0
  9
$TREEDEPTH
 70
  3020
  9
$CMLSTYLE
  2
STANDARD
  9
$CMLJUST
 70
     0
  9
$CMLSCALE
 40
1.0
  9
$PROXYGRAPHICS
 70
     1
  9
$MEASUREMENT
 70
     0
  9
$CELWEIGHT
370
    -1
  9
$ENDCAPS
280
     0
  9
$JOINSTYLE
280
     0
  9
$LWDISPLAY
290
     0
  9
$INSUNITS
 70
     0
  9
$HYPERLINKBASE
  1

  9
$STYLESHEET
  1

  9
$XEDIT
290
     1
  9
$CEPSNTYPE
380
     0
  9
$PSTYLEMODE
290
     1
  9
$FINGERPRINTGUID
  2
{80C82F9E-3555-424E-AB98-4A592B083C84}
  9
$VERSIONGUID
  2
{C6458148-26EC-11D7-BC24-0050FC22165F}
  9
$EXTNAMES
290
     1
  9
$PSVPSCALE
 40
0.0
  9
$OLESTARTUP
290
     0
  0
ENDSEC
  0
SECTION
  2
CLASSES
  0
CLASS
  1
LWPOLYLINE
  2
AcDbPolyline
  3
AutoCAD 2000
 90
    32768
280
     0
281
     1
  0
CLASS
  1
IMAGE
  2
AcDbRasterImage
  3
ISM
 90
    32895
280
     0
281
     1
  0
CLASS
  1
OLE2FRAME
  2
AcDbOle2Frame
  3
AutoCAD 2000
 90
    32768
280
     0
281
     1
  0
CLASS
  1
HATCH
  2
AcDbHatch
  3
AutoCAD 2000
 90
    32768
280
     0
281
     1
  0
CLASS
  1
DICTIONARYVAR
  2
AcDbDictionaryVar
  3
AutoCAD 2000
 90
        0
280
     0
281
     0
  0
CLASS
  1
RASTERVARIABLES
  2
AcDbRasterVariables
  3
ISM
 90
    32768
280
     0
281
     0
  0
CLASS
  1
IMAGEDEF
  2
AcDbRasterImageDef
  3
ISM
 90
    32768
280
     0
281
     0
  0
CLASS
  1
IMAGEDEF_REACTOR
  2
AcDbRasterImageDefReactor
  3
ISM
 90
    32769
280
     0
281
     0
  0
CLASS
  1
IDBUFFER
  2
AcDbIdBuffer
  3
AutoCAD 2000
 90
    32768
280
     0
281
     0
  0
CLASS
  1
SPATIAL_FILTER
  2
AcDbSpatialFilter
  3
AutoCAD 2000
 90
    32768
280
     0
281
     0
  0
CLASS
  1
XRECORD
  2
AcDbXrecord
  3
AutoCAD 2000
 90
    32768
280
     0
281
     0
  0
CLASS
  1
ACDBDICTIONARYWDFLT
  2
AcDbDictionaryWithDefault
  3
AutoCAD 2000
 90
        0
280
     0
281
     0
  0
CLASS
  1
ACDBPLACEHOLDER
  2
AcDbPlaceHolder
  3
AutoCAD 2000
 90
        0
280
     0
281
     0
  0
CLASS
  1
LAYOUT
  2
AcDbLayout
  3
AutoCAD 2000
 90
        0
280
     0
281
     0
  0
ENDSEC
  0
SECTION
  2
TABLES
  0
TABLE
  2
VPORT
  5
7
330
0
100
AcDbSymbolTable
 70
     3
  0
VPORT
  5
CC1
330
7
100
AcDbSymbolTableRecord
100
AcDbViewportTableRecord
  2
*Active
 70
     0
 10
0.0
 20
0.0
 11
1.0
 21
1.0
 12
7.732654171558567
 22
5.999639110318911
 13
0.0
 23
0.0
 14
1.0
 24
1.0
 15
0.0
 25
0.0
 16
0.0
 26
0.0
 36
1.0
 17
0.0
 27
0.0
 37
0.0
 40
12.13530931333633
 41
1.845703124999999
 42
50.0
 43
0.0
 44
0.0
 50
0.0
 51
0.0
 71
     0
 72
   100
 73
     1
 74
     0
 75
     0
 76
     0
 77
     0
 78
     0
281
     0
 65
     1
110
0.0
120
0.0
130
0.0
111
1.0
121
0.0
131
0.0
112
0.0
122
1.0
132
0.0
 79
     0
146
0.0
  0
ENDTAB
  0
TABLE
  2
LTYPE
  5
4
330
0
100
AcDbSymbolTable
 70
     1
  0
LTYPE
  5
11
330
4
100
AcDbSymbolTableRecord
100
AcDbLinetypeTableRecord
  2
BYBLOCK
 70
     0
  3

 72
    65
 73
     0
 40
0.0
  0
LTYPE
  5
12
330
4
100
AcDbSymbolTableRecord
100
AcDbLinetypeTableRecord
  2
BYLAYER
 70
     0
  3

 72
    65
 73
     0
 40
0.0
  0
LTYPE
  5
13
330
4
100
AcDbSymbolTableRecord
100
AcDbLinetypeTableRecord
  2
CONTINUOUS
 70
     0
  3
Solid line
 72
    65
 73
     0
 40
0.0
  0
ENDTAB
  0
TABLE
  2
LAYER
  5
2
330
0
100
AcDbSymbolTable
 70
     1
  0
LAYER
  5
14
330
2
100
AcDbSymbolTableRecord
100
AcDbLayerTableRecord
  2
0
 70
     0
 62
     7
  6
CONTINUOUS
370
    -3
390
2CC
  0
ENDTAB
  0
TABLE
  2
STYLE
  5
3
330
0
100
AcDbSymbolTable
 70
     1
  0
STYLE
  5
17
330
3
100
AcDbSymbolTableRecord
100
AcDbTextStyleTableRecord
  2
TXT
 70
     0
 40
0.1377952755905512
 41
1.0
 50
0.0
 71
     0
 42
0.1377952755905512
  3
TXT
  4

  0
ENDTAB
  0
TABLE
  2
VIEW
  5
5
330
0
100
AcDbSymbolTable
 70
     0
  0
ENDTAB
  0
TABLE
  2
UCS
  5
6
330
0
100
AcDbSymbolTable
 70
     0
  0
ENDTAB
  0
TABLE
  2
APPID
  5
8
330
0
100
AcDbSymbolTable
 70
     2
  0
APPID
  5
16
330
8
100
AcDbSymbolTableRecord
100
AcDbRegAppTableRecord
  2
ACAD
 70
     0
  0
APPID
  5
1D
330
8
100
AcDbSymbolTableRecord
100
AcDbRegAppTableRecord
  2
MegaCADPntStyle
 70
     0
  0
ENDTAB
  0
TABLE
  2
DIMSTYLE
  5
9
330
0
100
AcDbSymbolTable
 70
     1
100
AcDbDimStyleTable
 71
     0
  0
DIMSTYLE
105
18
330
9
100
AcDbSymbolTableRecord
100
AcDbDimStyleTableRecord
  2
STANDARD
 70
     0
289
     0
340
17
  0
ENDTAB
  0
TABLE
  2
BLOCK_RECORD
  5
1
330
0
100
AcDbSymbolTable
 70
     3
  0
BLOCK_RECORD
  5
A
330
1
100
AcDbSymbolTableRecord
100
AcDbBlockTableRecord
  2
*MODEL_SPACE
340
2CF
  0
BLOCK_RECORD
  5
B
330
1
100
AcDbSymbolTableRecord
100
AcDbBlockTableRecord
  2
*PAPER_SPACE
340
2D0
  0
BLOCK_RECORD
  5
4DA
330
1
100
AcDbSymbolTableRecord
100
AcDbBlockTableRecord
  2
wowc002end
340
0
310
28000000200000002000000001000800000000000004000000000000000000000000000000000000000000004000000080000000FF000000002000004020000080200000FF200000004000004040000080400000FF400000006000004060000080600000FF600000008000004080000080800000FF80000000A0000040A000
310
0080A00000FFA0000000C0000040C0000080C00000FFC0000000FF000040FF000080FF0000FFFF0000000020004000200080002000FF002000002020004020200080202000FF202000004020004040200080402000FF402000006020004060200080602000FF602000008020004080200080802000FF80200000A0200040A0
310
200080A02000FFA0200000C0200040C0200080C02000FFC0200000FF200040FF200080FF2000FFFF2000000040004000400080004000FF004000002040004020400080204000FF204000004040004040400080404000FF404000006040004060400080604000FF604000008040004080400080804000FF80400000A0400040
310
A0400080A04000FFA0400000C0400040C0400080C04000FFC0400000FF400040FF400080FF4000FFFF4000000060004000600080006000FF006000002060004020600080206000FF206000004060004040600080406000FF406000006060004060600080606000FF606000008060004080600080806000FF80600000A06000
310
40A0600080A06000FFA0600000C0600040C0600080C06000FFC0600000FF600040FF600080FF6000FFFF6000000080004000800080008000FF008000002080004020800080208000FF208000004080004040800080408000FF408000006080004060800080608000FF608000008080004080800080808000FF80800000A080
310
0040A0800080A08000FFA0800000C0800040C0800080C08000FFC0800000FF800040FF800080FF8000FFFF80000000A0004000A0008000A000FF00A0000020A0004020A0008020A000FF20A0000040A0004040A0008040A000FF40A0000060A0004060A0008060A000FF60A0000080A0004080A0008080A000FF80A00000A0
310
A00040A0A00080A0A000FFA0A00000C0A00040C0A00080C0A000FFC0A00000FFA00040FFA00080FFA000FFFFA0000000C0004000C0008000C000FF00C0000020C0004020C0008020C000FF20C0000040C0004040C0008040C000FF40C0000060C0004060C0008060C000FF60C0000080C0004080C0008080C000FF80C00000
310
A0C00040A0C00080A0C000FFA0C00000C0C00040C0C00080C0C000FFC0C00000FFC00040FFC00080FFC000FFFFC0000000FF004000FF008000FF00FF00FF000020FF004020FF008020FF00FF20FF000040FF004040FF008040FF00FF40FF000060FF004060FF008060FF00FF60FF000080FF004080FF008080FF00FF80FF00
310
00A0FF0040A0FF0080A0FF00FFA0FF0000C0FF0040C0FF0080C0FF00FFC0FF0000FFFF0040FFFF0080FFFF00FFFFFF0009090909090909090909090909090909090909090909090909090909090909090909090909090909090909090909090909FFFF09090909090909090909090909090909090909090909090909090909
310
0909FFFFFFFF09090909090909090909090909090909090909090909090909090909FF0909FF0909090909090909090909090909090909090909090909090909FFFFFF0909FFFF090909090909090909090909090909090909090909090909FF090909090909FF090909090909090909090909090909090909090909090909
310
FF090909090909FF0909090909090909090909090909090909090909090909FF09090909090909FF0909090909090909090909090909090909090909090909FF090909090909FFFF09090909090909090909090909090909090909090909FF090909090909FF090909090909090909090909090909090909090909090909FF
310
090909090909FF0909090909090909090909090909090909090909090909FF090909090909FF090909090909090909090909090909090909090909090909FF090909090909FF0909090909090909090909090909090909090909090909FF090909090909FF090909090909090909090909090909090909090909090909FF09
310
09090909FF09090909090909090909090909090909090909090909090909FF0909090909FF09090909090909090909090909090909090909090909090909FF09090909FF0909090909090909090909090909090909090909090909090909FF09090909FF0909090909090909090909090909090909090909090909090909FF
310
090909FF090909090909090909090909090909090909090909090909090909FF090909FF090909090909090909090909090909090909090909090909090909FF090909FFFF0909090909090909090909090909090909090909090909090909FF09090909FF0909090909090909090909090909090909090909090909090909
310
FF09090909FF0909090909090909090909090909090909090909090909090909FF090909FFFF0909090909090909090909090909090909090909090909090909FF090909FF090909090909090909090909090909090909090909090909090909FF0909FFFF0909090909090909090909090909090909090909090909090909
310
09FF09FFFF09090909090909090909090909090909090909090909090909090909FF09FF0909090909090909090909090909090909090909090909090909090909FF09FF0909090909090909090909090909090909090909090909090909090909FFFFFF090909090909090909090909090909090909090909090909090909
310
0909FFFF09090909090909090909090909090909090909090909090909090909090909090909090909090909090909090909090909090909
102
{BLKREFS
331
CA7
102
}
  0
BLOCK_RECORD
  5
6C3
330
1
100
AcDbSymbolTableRecord
100
AcDbBlockTableRecord
  2
wowc002front
340
0
310
28000000200000002000000001000800000000000004000000000000000000000000000000000000000000004000000080000000FF000000002000004020000080200000FF200000004000004040000080400000FF400000006000004060000080600000FF600000008000004080000080800000FF80000000A0000040A000
310
0080A00000FFA0000000C0000040C0000080C00000FFC0000000FF000040FF000080FF0000FFFF0000000020004000200080002000FF002000002020004020200080202000FF202000004020004040200080402000FF402000006020004060200080602000FF602000008020004080200080802000FF80200000A0200040A0
310
200080A02000FFA0200000C0200040C0200080C02000FFC0200000FF200040FF200080FF2000FFFF2000000040004000400080004000FF004000002040004020400080204000FF204000004040004040400080404000FF404000006040004060400080604000FF604000008040004080400080804000FF80400000A0400040
310
A0400080A04000FFA0400000C0400040C0400080C04000FFC0400000FF400040FF400080FF4000FFFF4000000060004000600080006000FF006000002060004020600080206000FF206000004060004040600080406000FF406000006060004060600080606000FF606000008060004080600080806000FF80600000A06000
310
40A0600080A06000FFA0600000C0600040C0600080C06000FFC0600000FF600040FF600080FF6000FFFF6000000080004000800080008000FF008000002080004020800080208000FF208000004080004040800080408000FF408000006080004060800080608000FF608000008080004080800080808000FF80800000A080
310
0040A0800080A08000FFA0800000C0800040C0800080C08000FFC0800000FF800040FF800080FF8000FFFF80000000A0004000A0008000A000FF00A0000020A0004020A0008020A000FF20A0000040A0004040A0008040A000FF40A0000060A0004060A0008060A000FF60A0000080A0004080A0008080A000FF80A00000A0
310
A00040A0A00080A0A000FFA0A00000C0A00040C0A00080C0A000FFC0A00000FFA00040FFA00080FFA000FFFFA0000000C0004000C0008000C000FF00C0000020C0004020C0008020C000FF20C0000040C0004040C0008040C000FF40C0000060C0004060C0008060C000FF60C0000080C0004080C0008080C000FF80C00000
310
A0C00040A0C00080A0C000FFA0C00000C0C00040C0C00080C0C000FFC0C00000FFC00040FFC00080FFC000FFFFC0000000FF004000FF008000FF00FF00FF000020FF004020FF008020FF00FF20FF000040FF004040FF008040FF00FF40FF000060FF004060FF008060FF00FF60FF000080FF004080FF008080FF00FF80FF00
310
00A0FF0040A0FF0080A0FF00FFA0FF0000C0FF0040C0FF0080C0FF00FFC0FF0000FFFF0040FFFF0080FFFF00FFFFFF0009090909090909090909090909090909090909090909090909090909090909090909090909090909090909090909090909090909090909090909090909090909090909090909090909090909090909
310
09090909090909090909090909090909090909090909090909090909090909090909090909090909090909090909090909090909090909090909090909090909090909090909090909090909090909090909090909090909090909090909090909090909090909090909090909090909090909090909090909090909090909
310
09090909090909090909090909090909090909090909090909090909090909090909090909090909090909090909090909090909090909090909090909090909090909090909090909090909090909090909090909090909090909090909090909090909090909090909090909090909090909090909090909090909090909
310
09090909090909090909090909090909090909090909090909090909090909090909090909090909090909090909090909090909FFFFFFFFFFFFFFFFFFFFFFFFFFFFFFFFFFFFFFFFFFFFFFFFFFFFFFFFFFFF0909FFFFFFFFFFFFFFFFFFFFFFFFFFFFFFFFFFFFFFFFFFFFFFFFFFFFFFFFFFFF0909FFFFFFFFFFFFFFFFFFFFFF
310
FFFFFFFFFFFFFFFFFFFFFFFFFFFFFFFFFFFFFF0909FF09090909090909090909090909090909090909090909090909090909FF0909FFFFFFFFFFFFFFFFFFFFFFFFFFFFFFFFFFFFFFFFFFFFFFFFFFFFFFFFFFFF0909FFFFFFFFFFFFFFFFFFFFFFFFFFFFFFFFFFFFFFFFFFFFFFFFFFFFFFFFFFFF0909FFFFFFFFFFFFFFFFFFFF
310
FFFFFFFFFFFFFFFFFFFFFFFFFFFFFFFFFFFFFFFF0909FFFFFFFFFFFFFFFFFFFFFFFFFFFFFFFFFFFFFFFFFFFFFFFFFFFFFFFFFFFF090909090909090909090909090909090909090909090909090909090909090909090909090909090909090909090909090909090909090909090909090909090909090909090909090909
310
09090909090909090909090909090909090909090909090909090909090909090909090909090909090909090909090909090909090909090909090909090909090909090909090909090909090909090909090909090909090909090909090909090909090909090909090909090909090909090909090909090909090909
310
09090909090909090909090909090909090909090909090909090909090909090909090909090909090909090909090909090909090909090909090909090909090909090909090909090909090909090909090909090909090909090909090909090909090909090909090909090909090909090909090909090909090909
310
0909090909090909090909090909090909090909090909090909090909090909090909090909090909090909090909090909090909090909
102
{BLKREFS
331
CB2
102
}
  0
BLOCK_RECORD
  5
6D1
330
1
100
AcDbSymbolTableRecord
100
AcDbBlockTableRecord
  2
wowc002top
340
0
310
28000000200000002000000001000800000000000004000000000000000000000000000000000000000000004000000080000000FF000000002000004020000080200000FF200000004000004040000080400000FF400000006000004060000080600000FF600000008000004080000080800000FF80000000A0000040A000
310
0080A00000FFA0000000C0000040C0000080C00000FFC0000000FF000040FF000080FF0000FFFF0000000020004000200080002000FF002000002020004020200080202000FF202000004020004040200080402000FF402000006020004060200080602000FF602000008020004080200080802000FF80200000A0200040A0
310
200080A02000FFA0200000C0200040C0200080C02000FFC0200000FF200040FF200080FF2000FFFF2000000040004000400080004000FF004000002040004020400080204000FF204000004040004040400080404000FF404000006040004060400080604000FF604000008040004080400080804000FF80400000A0400040
310
A0400080A04000FFA0400000C0400040C0400080C04000FFC0400000FF400040FF400080FF4000FFFF4000000060004000600080006000FF006000002060004020600080206000FF206000004060004040600080406000FF406000006060004060600080606000FF606000008060004080600080806000FF80600000A06000
310
40A0600080A06000FFA0600000C0600040C0600080C06000FFC0600000FF600040FF600080FF6000FFFF6000000080004000800080008000FF008000002080004020800080208000FF208000004080004040800080408000FF408000006080004060800080608000FF608000008080004080800080808000FF80800000A080
310
0040A0800080A08000FFA0800000C0800040C0800080C08000FFC0800000FF800040FF800080FF8000FFFF80000000A0004000A0008000A000FF00A0000020A0004020A0008020A000FF20A0000040A0004040A0008040A000FF40A0000060A0004060A0008060A000FF60A0000080A0004080A0008080A000FF80A00000A0
310
A00040A0A00080A0A000FFA0A00000C0A00040C0A00080C0A000FFC0A00000FFA00040FFA00080FFA000FFFFA0000000C0004000C0008000C000FF00C0000020C0004020C0008020C000FF20C0000040C0004040C0008040C000FF40C0000060C0004060C0008060C000FF60C0000080C0004080C0008080C000FF80C00000
310
A0C00040A0C00080A0C000FFA0C00000C0C00040C0C00080C0C000FFC0C00000FFC00040FFC00080FFC000FFFFC0000000FF004000FF008000FF00FF00FF000020FF004020FF008020FF00FF20FF000040FF004040FF008040FF00FF40FF000060FF004060FF008060FF00FF60FF000080FF004080FF008080FF00FF80FF00
310
00A0FF0040A0FF0080A0FF00FFA0FF0000C0FF0040C0FF0080C0FF00FFC0FF0000FFFF0040FFFF0080FFFF00FFFFFF0009090909090909090909090909090909090909090909090909090909090909090909090909090909090909090909090909090909090909090909090909090909090909090909090909090909090909
310
09090909090909090909090909090909090909090909090909090909090909090909090909090909090909090909090909090909090909090909090909090909090909090909090909090909090909090909090909090909090909090909090909090909090909090909090909090909090909090909090909090909090909
310
09090909090909090909090909090909090909090909090909090909090909090909090909090909090909090909090909090909090909090909090909090909090909090909090909090909090909090909090909090909090909090909090909090909090909090909090909090909090909090909090909090909090909
310
0909090909090909090909090909090909090909090909090909090909090909090909090909090909090909090909090909090909090909090909090909090909090909090909090909090909090909090909090909090909090909090909090909090909090909090909090909090909090909FFFFFFFFFFFFFFFFFFFFFF
310
FFFFFFFFFFFFFFFFFFFFFFFFFFFFFFFFFFFFFF0909FF09090909090909090909090909090909090909090909090909090909FF0909FFFFFFFFFFFFFFFFFFFFFFFFFFFFFFFFFFFFFFFFFFFFFFFFFFFFFFFFFFFF0909FFFFFFFFFFFFFFFFFFFFFFFFFFFFFFFFFFFFFFFFFFFFFFFFFFFFFFFFFFFF090909090909090909090909
310
09090909090909090909090909090909090909090909090909090909090909090909090909090909090909090909090909090909090909090909090909090909090909090909090909090909090909090909090909090909090909090909090909090909090909090909090909090909090909090909090909090909090909
310
09090909090909090909090909090909090909090909090909090909090909090909090909090909090909090909090909090909090909090909090909090909090909090909090909090909090909090909090909090909090909090909090909090909090909090909090909090909090909090909090909090909090909
310
09090909090909090909090909090909090909090909090909090909090909090909090909090909090909090909090909090909090909090909090909090909090909090909090909090909090909090909090909090909090909090909090909090909090909090909090909090909090909090909090909090909090909
310
0909090909090909090909090909090909090909090909090909090909090909090909090909090909090909090909090909090909090909
102
{BLKREFS
331
CBA
102
}
  0
ENDTAB
  0
ENDSEC
  0
SECTION
  2
BLOCKS
  0
BLOCK
  5
D
330
A
100
AcDbEntity
  8
0
100
AcDbBlockBegin
  2
*MODEL_SPACE
 70
     0
 10
0.0
 20
0.0
 30
0.0
  3
*MODEL_SPACE
  1

  0
ENDBLK
  5
E
330
A
100
AcDbEntity
  8
0
100
AcDbBlockEnd
  0
BLOCK
  5
F
330
B
100
AcDbEntity
 67
     1
  8
0
100
AcDbBlockBegin
  2
*PAPER_SPACE
 70
     0
 10
0.0
 20
0.0
 30
0.0
  3
*PAPER_SPACE
  1

  0
ENDBLK
  5
10
330
B
100
AcDbEntity
 67
     1
  8
0
100
AcDbBlockEnd
  0
BLOCK
  5
4DB
330
4DA
100
AcDbEntity
  8
0
100
AcDbBlockBegin
  2
wowc002end
 70
     0
 10
0.0
 20
0.0
 30
0.0
  3
wowc002end
  1

  0
ARC
  5
AC2
330
4DA
100
AcDbEntity
  8
0
  6
Continuous
100
AcDbCircle
 10
0.3728312951443797
 20
-0.8659647648804025
 30
0.0
 40
0.1856069896605323
100
AcDbArc
 50
271.0616051377467
 51
88.93839486225324
  0
LINE
  5
AC3
330
4DA
100
AcDbEntity
  8
0
  6
Continuous
100
AcDbLine
 10
0.0
 20
0.0
 30
0.0
 11
0.0
 21
-1.747502328646561
 31
0.0
  0
LINE
  5
AC4
330
4DA
100
AcDbEntity
  8
0
  6
Continuous
100
AcDbLine
 10
0.4591575102344052
 20
-2.746724604195662
 30
0.0
 11
0.0
 21
-1.747502328646561
 31
0.0
  0
LINE
  5
AC5
330
4DA
100
AcDbEntity
  8
0
  6
Continuous
100
AcDbLine
 10
1.123694436421885
 20
-2.745740016278517
 30
0.0
 11
1.123694436421885
 21
-2.247420379657114
 31
0.0
  0
LINE
  5
AC6
330
4DA
100
AcDbEntity
  8
0
  6
Continuous
100
AcDbLine
 10
0.9356735894136818
 20
-2.962073673431888
 30
0.0
 11
0.9398876256990433
 21
-2.959671278914072
 31
0.0
  0
LINE
  5
AC7
330
4DA
100
AcDbEntity
  8
0
  6
Continuous
100
AcDbLine
 10
0.75
 20
-2.746724604195662
 30
0.0
 11
0.4591575102344052
 21
-2.746724604195662
 31
0.0
  0
LINE
  5
AC8
330
4DA
100
AcDbEntity
  8
0
  6
Continuous
100
AcDbLine
 10
0.75
 20
-3.0
 30
0.0
 11
0.75
 21
-2.746724604195662
 31
0.0
  0
LINE
  5
AC9
330
4DA
100
AcDbEntity
  8
0
  6
Continuous
100
AcDbLine
 10
0.75
 20
-3.0
 30
0.0
 11
0.8125481680296502
 21
-3.0
 31
0.0
  0
LINE
  5
ACA
330
4DA
100
AcDbEntity
  8
0
  6
Continuous
100
AcDbLine
 10
0.9269304487095268
 20
-2.966720928400775
 30
0.0
 11
0.9313414025783117
 21
-2.964436684432996
 31
0.0
  0
LINE
  5
ACB
330
4DA
100
AcDbEntity
  8
0
  6
Continuous
100
AcDbLine
 10
0.922401344290705
 20
-2.968965788851846
 30
0.0
 11
0.9269304487095268
 21
-2.966720928400775
 31
0.0
  0
LINE
  5
ACC
330
4DA
100
AcDbEntity
  8
0
  6
Continuous
100
AcDbLine
 10
0.9177934728384968
 20
-2.971171265786239
 30
0.0
 11
0.922401344290705
 21
-2.968965788851846
 31
0.0
  0
LINE
  5
ACD
330
4DA
100
AcDbEntity
  8
0
  6
Continuous
100
AcDbLine
 10
0.9130674508362233
 20
-2.973297975687245
 30
0.0
 11
0.9177934728384968
 21
-2.971171265786239
 31
0.0
  0
LINE
  5
ACE
330
4DA
100
AcDbEntity
  8
0
  6
Continuous
100
AcDbLine
 10
0.9033397222149233
 20
-2.97743324493922
 30
0.0
 11
0.9082626618005917
 21
-2.975385302071572
 31
0.0
  0
LINE
  5
ACF
330
4DA
100
AcDbEntity
  8
0
  6
Continuous
100
AcDbLine
 10
0.8983380155958684
 20
-2.97940242077351
 30
0.0
 11
0.9033397222149233
 21
-2.97743324493922
 31
0.0
  0
LINE
  5
AD0
330
4DA
100
AcDbEntity
  8
0
  6
Continuous
100
AcDbLine
 10
0.8932181584267482
 20
-2.981292829574385
 30
0.0
 11
0.8983380155958684
 21
-2.97940242077351
 31
0.0
  0
LINE
  5
AD1
330
4DA
100
AcDbEntity
  8
0
  6
Continuous
100
AcDbLine
 10
0.8879801507075626
 20
-2.98314385485861
 30
0.0
 11
0.8932181584267482
 21
-2.981292829574385
 31
0.0
  0
LINE
  5
AD2
330
4DA
100
AcDbEntity
  8
0
  6
Continuous
100
AcDbLine
 10
0.8826239924383685
 20
-2.984916113109477
 30
0.0
 11
0.8879801507075626
 21
-2.98314385485861
 31
0.0
  0
LINE
  5
AD3
330
4DA
100
AcDbEntity
  8
0
  6
Continuous
100
AcDbLine
 10
0.8771890671357596
 20
-2.986648987843636
 30
0.0
 11
0.8826239924383685
 21
-2.984916113109477
 31
0.0
  0
LINE
  5
AD4
330
4DA
100
AcDbEntity
  8
0
  6
Continuous
100
AcDbLine
 10
0.8716753747997927
 20
-2.98826371202773
 30
0.0
 11
0.8771890671357596
 21
-2.986648987843636
 31
0.0
  0
LINE
  5
AD5
330
4DA
100
AcDbEntity
  8
0
  6
Continuous
100
AcDbLine
 10
0.8660041483970815
 20
-2.989839052695145
 30
0.0
 11
0.8716753747997927
 21
-2.98826371202773
 31
0.0
  0
LINE
  5
AD6
330
4DA
100
AcDbEntity
  8
0
  6
Continuous
100
AcDbLine
 10
0.8602541549610123
 20
-2.991335626329203
 30
0.0
 11
0.8660041483970815
 21
-2.989839052695145
 31
0.0
  0
LINE
  5
AD7
330
4DA
100
AcDbEntity
  8
0
  6
Continuous
100
AcDbLine
 10
0.8543860109748777
 20
-2.992753432929873
 30
0.0
 11
0.8602541549610123
 21
-2.991335626329203
 31
0.0
  0
LINE
  5
AD8
330
4DA
100
AcDbEntity
  8
0
  6
Continuous
100
AcDbLine
 10
0.8483997164386778
 20
-2.994131856013865
 30
0.0
 11
0.8543860109748777
 21
-2.992753432929873
 31
0.0
  0
LINE
  5
AD9
330
4DA
100
AcDbEntity
  8
0
  6
Continuous
100
AcDbLine
 10
0.8422952713524125
 20
-2.995392128547791
 30
0.0
 11
0.8483997164386778
 21
-2.994131856013865
 31
0.0
  0
ARC
  5
ADA
330
4DA
100
AcDbEntity
  8
0
  6
Continuous
100
AcDbCircle
 10
0.8125481680296502
 20
-2.976807454444724
 30
0.0
 40
0.0231925455552808
100
AcDbArc
 50
270.0
 51
276.0885281541417
  0
LINE
  5
ADB
330
4DA
100
AcDbEntity
  8
0
  6
Continuous
100
AcDbLine
 10
0.8297319295297427
 20
-2.997715756032249
 30
0.0
 11
0.8360726757161103
 21
-2.99657363404836
 31
0.0
  0
LINE
  5
ADC
330
4DA
100
AcDbEntity
  8
0
  6
Continuous
100
AcDbLine
 10
0.8233124163100171
 20
-2.998739727466073
 30
0.0
 11
0.8297319295297427
 21
-2.997715756032249
 31
0.0
  0
LINE
  5
ADD
330
4DA
100
AcDbEntity
  8
0
  6
Continuous
100
AcDbLine
 10
0.8167353690235472
 20
-2.999684931866511
 30
0.0
 11
0.8233124163100171
 21
-2.998739727466073
 31
0.0
  0
LINE
  5
ADE
330
4DA
100
AcDbEntity
  8
0
  6
Continuous
100
AcDbLine
 10
0.8150080849423773
 20
-2.999869175501828
 30
0.0
 11
0.8167353690235472
 21
-2.999684931866511
 31
0.0
  0
LINE
  5
ADF
330
4DA
100
AcDbEntity
  8
0
  6
Continuous
100
AcDbLine
 10
0.8360726757161103
 20
-2.99657363404836
 30
0.0
 11
0.8422952713524125
 21
-2.995392128547791
 31
0.0
  0
LINE
  5
AE0
330
4DA
100
AcDbEntity
  8
0
  6
Continuous
100
AcDbLine
 10
0.9082626618005917
 20
-2.975385302071572
 30
0.0
 11
0.9130674508362233
 21
-2.973297975687245
 31
0.0
  0
LINE
  5
AE1
330
4DA
100
AcDbEntity
  8
0
  6
Continuous
100
AcDbLine
 10
0.9313414025783117
 20
-2.964436684432996
 30
0.0
 11
0.9356735894136818
 21
-2.962073673431888
 31
0.0
  0
LINE
  5
AE2
330
4DA
100
AcDbEntity
  8
0
  6
Continuous
100
AcDbLine
 10
1.035944022894938
 20
-2.860306666316603
 30
0.0
 11
1.037440596528995
 21
-2.857431669598554
 31
0.0
  0
LINE
  5
AE3
330
4DA
100
AcDbEntity
  8
0
  6
Continuous
100
AcDbLine
 10
0.9440228949510185
 20
-2.957229500879577
 30
0.0
 11
0.9480793971696357
 21
-2.954748339328375
 31
0.0
  0
LINE
  5
AE4
330
4DA
100
AcDbEntity
  8
0
  6
Continuous
100
AcDbLine
 10
0.9398876256990433
 20
-2.959671278914072
 30
0.0
 11
0.9440228949510185
 21
-2.957229500879577
 31
0.0
  0
LINE
  5
AE5
330
4DA
100
AcDbEntity
  8
0
  6
Continuous
100
AcDbLine
 10
1.000932076561554
 20
-2.910599417123961
 30
0.0
 11
1.003531388662793
 21
-2.907645653372554
 31
0.0
  0
LINE
  5
AE6
330
4DA
100
AcDbEntity
  8
0
  6
Continuous
100
AcDbLine
 10
1.017709454669557
 20
-2.889844303830727
 30
0.0
 11
1.019836164570563
 21
-2.886851156562613
 31
0.0
  0
LINE
  5
AE7
330
4DA
100
AcDbEntity
  8
0
  6
Continuous
100
AcDbLine
 10
1.015543361251872
 20
-2.892798067582134
 30
0.0
 11
1.017709454669557
 21
-2.889844303830727
 31
0.0
  0
LINE
  5
AE8
330
4DA
100
AcDbEntity
  8
0
  6
Continuous
100
AcDbLine
 10
1.013259117284093
 20
-2.89579121485022
 30
0.0
 11
1.015543361251872
 21
-2.892798067582134
 31
0.0
  0
LINE
  5
AE9
330
4DA
100
AcDbEntity
  8
0
  6
Continuous
100
AcDbLine
 10
1.010935489799663
 20
-2.898784362118306
 30
0.0
 11
1.013259117284093
 21
-2.89579121485022
 31
0.0
  0
LINE
  5
AEA
330
4DA
100
AcDbEntity
  8
0
  6
Continuous
100
AcDbLine
 10
1.008533095281848
 20
-2.901738125869712
 30
0.0
 11
1.010935489799663
 21
-2.898784362118306
 31
0.0
  0
LINE
  5
AEB
330
4DA
100
AcDbEntity
  8
0
  6
Continuous
100
AcDbLine
 10
1.006091317247353
 20
-2.904691889621119
 30
0.0
 11
1.008533095281848
 21
-2.901738125869712
 31
0.0
  0
LINE
  5
AEC
330
4DA
100
AcDbEntity
  8
0
  6
Continuous
100
AcDbLine
 10
1.003531388662793
 20
-2.907645653372554
 30
0.0
 11
1.006091317247353
 21
-2.904691889621119
 31
0.0
  0
LINE
  5
AED
330
4DA
100
AcDbEntity
  8
0
  6
Continuous
100
AcDbLine
 10
1.034408065744202
 20
-2.863221046551302
 30
0.0
 11
1.035944022894938
 21
-2.860306666316603
 31
0.0
  0
LINE
  5
AEE
330
4DA
100
AcDbEntity
  8
0
  6
Continuous
100
AcDbLine
 10
1.032793341560108
 20
-2.866135426786058
 30
0.0
 11
1.034408065744202
 21
-2.863221046551302
 31
0.0
  0
LINE
  5
AEF
330
4DA
100
AcDbEntity
  8
0
  6
Continuous
100
AcDbLine
 10
1.031139233859306
 20
-2.869049807020758
 30
0.0
 11
1.032793341560108
 21
-2.866135426786058
 31
0.0
  0
LINE
  5
AF0
330
4DA
100
AcDbEntity
  8
0
  6
Continuous
100
AcDbLine
 10
1.029406359125147
 20
-2.872003570772193
 30
0.0
 11
1.031139233859306
 21
-2.869049807020758
 31
0.0
  0
LINE
  5
AF1
330
4DA
100
AcDbEntity
  8
0
  6
Continuous
100
AcDbLine
 10
1.027634100874308
 20
-2.8749573345236
 30
0.0
 11
1.029406359125147
 21
-2.872003570772193
 31
0.0
  0
LINE
  5
AF2
330
4DA
100
AcDbEntity
  8
0
  6
Continuous
100
AcDbLine
 10
1.025783075590084
 20
-2.877911098275006
 30
0.0
 11
1.027634100874308
 21
-2.8749573345236
 31
0.0
  0
LINE
  5
AF3
330
4DA
100
AcDbEntity
  8
0
  6
Continuous
100
AcDbLine
 10
1.023853283272501
 20
-2.880904245543092
 30
0.0
 11
1.025783075590084
 21
-2.877911098275006
 31
0.0
  0
LINE
  5
AF4
330
4DA
100
AcDbEntity
  8
0
  6
Continuous
100
AcDbLine
 10
1.021884107438239
 20
-2.883858009294499
 30
0.0
 11
1.023853283272501
 21
-2.880904245543092
 31
0.0
  0
LINE
  5
AF5
330
4DA
100
AcDbEntity
  8
0
  6
Continuous
100
AcDbLine
 10
1.019836164570563
 20
-2.886851156562613
 30
0.0
 11
1.021884107438239
 21
-2.883858009294499
 31
0.0
  0
LINE
  5
AF6
330
4DA
100
AcDbEntity
  8
0
  6
Continuous
100
AcDbLine
 10
0.9982146139102496
 20
-2.913553180875368
 30
0.0
 11
1.000932076561554
 21
-2.910599417123961
 31
0.0
  0
LINE
  5
AF7
330
4DA
100
AcDbEntity
  8
0
  6
Continuous
100
AcDbLine
 10
0.9954577677422662
 20
-2.916467561110096
 30
0.0
 11
0.9982146139102496
 21
-2.913553180875368
 31
0.0
  0
LINE
  5
AF8
330
4DA
100
AcDbEntity
  8
0
  6
Continuous
100
AcDbLine
 10
0.9926221545409248
 20
-2.919342557828144
 30
0.0
 11
0.9954577677422662
 21
-2.916467561110096
 31
0.0
  0
LINE
  5
AF9
330
4DA
100
AcDbEntity
  8
0
  6
Continuous
100
AcDbLine
 10
0.989707774306197
 20
-2.922256938062844
 30
0.0
 11
0.9926221545409248
 21
-2.919342557828144
 31
0.0
  0
LINE
  5
AFA
330
4DA
100
AcDbEntity
  8
0
  6
Continuous
100
AcDbLine
 10
0.9771838160002062
 20
-2.933560007351587
 30
0.0
 11
0.9804526478851016
 21
-2.930763777666925
 31
0.0
  0
LINE
  5
AFB
330
4DA
100
AcDbEntity
  8
0
  6
Continuous
100
AcDbLine
 10
0.9738362170819243
 20
-2.936316853519571
 30
0.0
 11
0.9771838160002062
 21
-2.933560007351587
 31
0.0
  0
LINE
  5
AFC
330
4DA
100
AcDbEntity
  8
0
  6
Continuous
100
AcDbLine
 10
0.9704492346469919
 20
-2.939034316170875
 30
0.0
 11
0.9738362170819243
 21
-2.936316853519571
 31
0.0
  0
LINE
  5
AFD
330
4DA
100
AcDbEntity
  8
0
  6
Continuous
100
AcDbLine
 10
0.9669441016619941
 20
-2.94175177882218
 30
0.0
 11
0.9704492346469919
 21
-2.939034316170875
 31
0.0
  0
LINE
  5
AFE
330
4DA
100
AcDbEntity
  8
0
  6
Continuous
100
AcDbLine
 10
0.9633208181269026
 20
-2.944429857956777
 30
0.0
 11
0.9669441016619941
 21
-2.94175177882218
 31
0.0
  0
LINE
  5
AFF
330
4DA
100
AcDbEntity
  8
0
  6
Continuous
100
AcDbLine
 10
0.9596581510751605
 20
-2.947068553574723
 30
0.0
 11
0.9633208181269026
 21
-2.944429857956777
 31
0.0
  0
LINE
  5
B00
330
4DA
100
AcDbEntity
  8
0
  6
Continuous
100
AcDbLine
 10
0.955877333473353
 20
-2.949667865675962
 30
0.0
 11
0.9596581510751605
 21
-2.947068553574723
 31
0.0
  0
LINE
  5
B01
330
4DA
100
AcDbEntity
  8
0
  6
Continuous
100
AcDbLine
 10
0.9520177488381875
 20
-2.952227794260522
 30
0.0
 11
0.955877333473353
 21
-2.949667865675962
 31
0.0
  0
LINE
  5
B02
330
4DA
100
AcDbEntity
  8
0
  6
Continuous
100
AcDbLine
 10
0.9836033292199317
 20
-2.927928164465583
 30
0.0
 11
0.9866752435214038
 21
-2.925092551264214
 31
0.0
  0
LINE
  5
B03
330
4DA
100
AcDbEntity
  8
0
  6
Continuous
100
AcDbLine
 10
0.9804526478851016
 20
-2.930763777666925
 30
0.0
 11
0.9836033292199317
 21
-2.927928164465583
 31
0.0
  0
LINE
  5
B04
330
4DA
100
AcDbEntity
  8
0
  6
Continuous
100
AcDbLine
 10
0.9866752435214038
 20
-2.925092551264214
 30
0.0
 11
0.989707774306197
 21
-2.922256938062844
 31
0.0
  0
LINE
  5
B05
330
4DA
100
AcDbEntity
  8
0
  6
Continuous
100
AcDbLine
 10
0.9480793971696357
 20
-2.954748339328375
 30
0.0
 11
0.9520177488381875
 21
-2.952227794260522
 31
0.0
  0
LINE
  5
B06
330
4DA
100
AcDbEntity
  8
0
  6
Continuous
100
AcDbLine
 10
1.062330979074204
 20
-2.745740016278517
 30
0.0
 11
1.123694436421885
 21
-2.745740016278517
 31
0.0
  0
LINE
  5
B07
330
4DA
100
AcDbEntity
  8
0
  6
Continuous
100
AcDbLine
 10
1.037440596528995
 20
-2.857431669598554
 30
0.0
 11
1.038858403129665
 21
-2.854556672880505
 31
0.0
  0
LINE
  5
B08
330
4DA
100
AcDbEntity
  8
0
  6
Continuous
100
AcDbLine
 10
1.041536482264291
 20
-2.848885446477822
 30
0.0
 11
1.042796754798217
 21
-2.846089216793131
 31
0.0
  0
LINE
  5
B09
330
4DA
100
AcDbEntity
  8
0
  6
Continuous
100
AcDbLine
 10
1.040236826213657
 20
-2.851721059679164
 30
0.0
 11
1.041536482264291
 21
-2.848885446477822
 31
0.0
  0
LINE
  5
B0A
330
4DA
100
AcDbEntity
  8
0
  6
Continuous
100
AcDbLine
 10
1.038858403129665
 20
-2.854556672880505
 30
0.0
 11
1.040236826213657
 21
-2.851721059679164
 31
0.0
  0
LINE
  5
B0B
330
4DA
100
AcDbEntity
  8
0
  6
Continuous
100
AcDbLine
 10
1.060558720823365
 20
-2.781894084595791
 30
0.0
 11
1.060637487856752
 21
-2.780870113161967
 31
0.0
  0
LINE
  5
B0C
330
4DA
100
AcDbEntity
  8
0
  6
Continuous
100
AcDbLine
 10
1.060479953789979
 20
-2.782996823063001
 30
0.0
 11
1.060558720823365
 21
-2.781894084595791
 31
0.0
  0
LINE
  5
B0D
330
4DA
100
AcDbEntity
  8
0
  6
Continuous
100
AcDbLine
 10
1.060361803239942
 20
-2.784217712080248
 30
0.0
 11
1.060479953789979
 21
-2.782996823063001
 31
0.0
  0
LINE
  5
B0E
330
4DA
100
AcDbEntity
  8
0
  6
Continuous
100
AcDbLine
 10
1.060243652689877
 20
-2.785477984614175
 30
0.0
 11
1.060361803239942
 21
-2.784217712080248
 31
0.0
  0
LINE
  5
B0F
330
4DA
100
AcDbEntity
  8
0
  6
Continuous
100
AcDbLine
 10
1.060086118623132
 20
-2.786817024181488
 30
0.0
 11
1.060243652689877
 21
-2.785477984614175
 31
0.0
  0
LINE
  5
B10
330
4DA
100
AcDbEntity
  8
0
  6
Continuous
100
AcDbLine
 10
1.059889201039709
 20
-2.788274214298837
 30
0.0
 11
1.060086118623132
 21
-2.786817024181488
 31
0.0
  0
LINE
  5
B11
330
4DA
100
AcDbEntity
  8
0
  6
Continuous
100
AcDbLine
 10
1.059692283456286
 20
-2.789770787932894
 30
0.0
 11
1.059889201039709
 21
-2.788274214298837
 31
0.0
  0
LINE
  5
B12
330
4DA
100
AcDbEntity
  8
0
  6
Continuous
100
AcDbLine
 10
1.059455982356183
 20
-2.791346128600309
 30
0.0
 11
1.059692283456286
 21
-2.789770787932894
 31
0.0
  0
LINE
  5
B13
330
4DA
100
AcDbEntity
  8
0
  6
Continuous
100
AcDbLine
 10
1.059180297739374
 20
-2.793000236301111
 30
0.0
 11
1.059455982356183
 21
-2.791346128600309
 31
0.0
  0
LINE
  5
B14
330
4DA
100
AcDbEntity
  8
0
  6
Continuous
100
AcDbLine
 10
1.058904613122564
 20
-2.794693727518591
 30
0.0
 11
1.059180297739374
 21
-2.793000236301111
 31
0.0
  0
LINE
  5
B15
330
4DA
100
AcDbEntity
  8
0
  6
Continuous
100
AcDbLine
 10
1.058550161472396
 20
-2.79646598576943
 30
0.0
 11
1.058904613122564
 21
-2.794693727518591
 31
0.0
  0
LINE
  5
B16
330
4DA
100
AcDbEntity
  8
0
  6
Continuous
100
AcDbLine
 10
1.058195709822228
 20
-2.798317011053654
 30
0.0
 11
1.058550161472396
 21
-2.79646598576943
 31
0.0
  0
LINE
  5
B17
330
4DA
100
AcDbEntity
  8
0
  6
Continuous
100
AcDbLine
 10
1.057801874655382
 20
-2.800246803371237
 30
0.0
 11
1.058195709822228
 21
-2.798317011053654
 31
0.0
  0
LINE
  5
B18
330
4DA
100
AcDbEntity
  8
0
  6
Continuous
100
AcDbLine
 10
1.057408039488535
 20
-2.802215979205499
 30
0.0
 11
1.057801874655382
 21
-2.800246803371237
 31
0.0
  0
LINE
  5
B19
330
4DA
100
AcDbEntity
  8
0
  6
Continuous
100
AcDbLine
 10
1.056935437288302
 20
-2.804224538556468
 30
0.0
 11
1.057408039488535
 21
-2.802215979205499
 31
0.0
  0
LINE
  5
B1A
330
4DA
100
AcDbEntity
  8
0
  6
Continuous
100
AcDbLine
 10
1.05642345157139
 20
-2.806311864940795
 30
0.0
 11
1.056935437288302
 21
-2.804224538556468
 31
0.0
  0
LINE
  5
B1B
330
4DA
100
AcDbEntity
  8
0
  6
Continuous
100
AcDbLine
 10
1.055911465854478
 20
-2.808477958358508
 30
0.0
 11
1.05642345157139
 21
-2.806311864940795
 31
0.0
  0
LINE
  5
B1C
330
4DA
100
AcDbEntity
  8
0
  6
Continuous
100
AcDbLine
 10
1.05532071310418
 20
-2.810683435292901
 30
0.0
 11
1.055911465854478
 21
-2.808477958358508
 31
0.0
  0
LINE
  5
B1D
330
4DA
100
AcDbEntity
  8
0
  6
Continuous
100
AcDbLine
 10
1.05472996035391
 20
-2.812928295743972
 30
0.0
 11
1.05532071310418
 21
-2.810683435292901
 31
0.0
  0
LINE
  5
B1E
330
4DA
100
AcDbEntity
  8
0
  6
Continuous
100
AcDbLine
 10
1.054099824086932
 20
-2.815212539711723
 30
0.0
 11
1.05472996035391
 21
-2.812928295743972
 31
0.0
  0
LINE
  5
B1F
330
4DA
100
AcDbEntity
  8
0
  6
Continuous
100
AcDbLine
 10
1.053390920786597
 20
-2.817575550712831
 30
0.0
 11
1.054099824086932
 21
-2.815212539711723
 31
0.0
  0
LINE
  5
B20
330
4DA
100
AcDbEntity
  8
0
  6
Continuous
100
AcDbLine
 10
1.052642633969583
 20
-2.819977945230675
 30
0.0
 11
1.053390920786597
 21
-2.817575550712831
 31
0.0
  0
LINE
  5
B21
330
4DA
100
AcDbEntity
  8
0
  6
Continuous
100
AcDbLine
 10
1.051894347152568
 20
-2.82241972326517
 30
0.0
 11
1.052642633969583
 21
-2.819977945230675
 31
0.0
  0
LINE
  5
B22
330
4DA
100
AcDbEntity
  8
0
  6
Continuous
100
AcDbLine
 10
1.051067293302168
 20
-2.824900884816344
 30
0.0
 11
1.051894347152568
 21
-2.82241972326517
 31
0.0
  0
LINE
  5
B23
330
4DA
100
AcDbEntity
  8
0
  6
Continuous
100
AcDbLine
 10
1.050200855935088
 20
-2.827421429884225
 30
0.0
 11
1.051067293302168
 21
-2.824900884816344
 31
0.0
  0
LINE
  5
B24
330
4DA
100
AcDbEntity
  8
0
  6
Continuous
100
AcDbLine
 10
1.049295035051329
 20
-2.829981358468785
 30
0.0
 11
1.050200855935088
 21
-2.827421429884225
 31
0.0
  0
LINE
  5
B25
330
4DA
100
AcDbEntity
  8
0
  6
Continuous
100
AcDbLine
 10
1.048349830650863
 20
-2.832580670570024
 30
0.0
 11
1.049295035051329
 21
-2.829981358468785
 31
0.0
  0
LINE
  5
B26
330
4DA
100
AcDbEntity
  8
0
  6
Continuous
100
AcDbLine
 10
1.047325859217039
 20
-2.835219366187942
 30
0.0
 11
1.048349830650863
 21
-2.832580670570024
 31
0.0
  0
LINE
  5
B27
330
4DA
100
AcDbEntity
  8
0
  6
Continuous
100
AcDbLine
 10
1.046262504266536
 20
-2.837897445322539
 30
0.0
 11
1.047325859217039
 21
-2.835219366187942
 31
0.0
  0
LINE
  5
B28
330
4DA
100
AcDbEntity
  8
0
  6
Continuous
100
AcDbLine
 10
1.045159765799354
 20
-2.840614907973844
 30
0.0
 11
1.046262504266536
 21
-2.837897445322539
 31
0.0
  0
LINE
  5
B29
330
4DA
100
AcDbEntity
  8
0
  6
Continuous
100
AcDbLine
 10
1.044017643815465
 20
-2.843332370625148
 30
0.0
 11
1.045159765799354
 21
-2.840614907973844
 31
0.0
  0
LINE
  5
B2A
330
4DA
100
AcDbEntity
  8
0
  6
Continuous
100
AcDbLine
 10
1.062330979074204
 20
-2.745779399795196
 30
0.0
 11
1.062330979074204
 21
-2.745740016278517
 31
0.0
  0
LINE
  5
B2B
330
4DA
100
AcDbEntity
  8
0
  6
Continuous
100
AcDbLine
 10
1.062330979074204
 20
-2.745818783311904
 30
0.0
 11
1.062330979074204
 21
-2.745779399795196
 31
0.0
  0
LINE
  5
B2C
330
4DA
100
AcDbEntity
  8
0
  6
Continuous
100
AcDbLine
 10
1.062330979074204
 20
-2.745858166828583
 30
0.0
 11
1.062330979074204
 21
-2.745818783311904
 31
0.0
  0
LINE
  5
B2D
330
4DA
100
AcDbEntity
  8
0
  6
Continuous
100
AcDbLine
 10
1.062330979074204
 20
-2.745897550345262
 30
0.0
 11
1.062330979074204
 21
-2.745858166828583
 31
0.0
  0
LINE
  5
B2E
330
4DA
100
AcDbEntity
  8
0
  6
Continuous
100
AcDbLine
 10
1.062330979074204
 20
-2.74597631737862
 30
0.0
 11
1.062330979074204
 21
-2.745897550345262
 31
0.0
  0
LINE
  5
B2F
330
4DA
100
AcDbEntity
  8
0
  6
Continuous
100
AcDbLine
 10
1.062330979074204
 20
-2.746055084412006
 30
0.0
 11
1.062330979074204
 21
-2.74597631737862
 31
0.0
  0
LINE
  5
B30
330
4DA
100
AcDbEntity
  8
0
  6
Continuous
100
AcDbLine
 10
1.062330979074204
 20
-2.746173234962071
 30
0.0
 11
1.062330979074204
 21
-2.746055084412006
 31
0.0
  0
LINE
  5
B31
330
4DA
100
AcDbEntity
  8
0
  6
Continuous
100
AcDbLine
 10
1.062330979074204
 20
-2.746252001995429
 30
0.0
 11
1.062330979074204
 21
-2.746173234962071
 31
0.0
  0
LINE
  5
B32
330
4DA
100
AcDbEntity
  8
0
  6
Continuous
100
AcDbLine
 10
1.062330979074204
 20
-2.746370152545495
 30
0.0
 11
1.062330979074204
 21
-2.746252001995429
 31
0.0
  0
LINE
  5
B33
330
4DA
100
AcDbEntity
  8
0
  6
Continuous
100
AcDbLine
 10
1.062330979074204
 20
-2.74648830309556
 30
0.0
 11
1.062330979074204
 21
-2.746370152545495
 31
0.0
  0
LINE
  5
B34
330
4DA
100
AcDbEntity
  8
0
  6
Continuous
100
AcDbLine
 10
1.062330979074204
 20
-2.746645837162304
 30
0.0
 11
1.062330979074204
 21
-2.74648830309556
 31
0.0
  0
LINE
  5
B35
330
4DA
100
AcDbEntity
  8
0
  6
Continuous
100
AcDbLine
 10
1.062330979074204
 20
-2.746763987712341
 30
0.0
 11
1.062330979074204
 21
-2.746645837162304
 31
0.0
  0
LINE
  5
B36
330
4DA
100
AcDbEntity
  8
0
  6
Continuous
100
AcDbLine
 10
1.062330979074204
 20
-2.746921521779086
 30
0.0
 11
1.062330979074204
 21
-2.746763987712341
 31
0.0
  0
LINE
  5
B37
330
4DA
100
AcDbEntity
  8
0
  6
Continuous
100
AcDbLine
 10
1.062330979074204
 20
-2.747118439362509
 30
0.0
 11
1.062330979074204
 21
-2.746921521779086
 31
0.0
  0
LINE
  5
B38
330
4DA
100
AcDbEntity
  8
0
  6
Continuous
100
AcDbLine
 10
1.062330979074204
 20
-2.747275973429253
 30
0.0
 11
1.062330979074204
 21
-2.745740016278517
 31
0.0
  0
LINE
  5
B39
330
4DA
100
AcDbEntity
  8
0
  6
Continuous
100
AcDbLine
 10
1.062291595557525
 20
-2.747472891012677
 30
0.0
 11
1.062330979074204
 21
-2.747275973429253
 31
0.0
  0
LINE
  5
B3A
330
4DA
100
AcDbEntity
  8
0
  6
Continuous
100
AcDbLine
 10
1.062291595557525
 20
-2.747669808596128
 30
0.0
 11
1.062291595557525
 21
-2.747472891012677
 31
0.0
  0
LINE
  5
B3B
330
4DA
100
AcDbEntity
  8
0
  6
Continuous
100
AcDbLine
 10
1.062291595557525
 20
-2.747866726179552
 30
0.0
 11
1.062291595557525
 21
-2.747669808596128
 31
0.0
  0
LINE
  5
B3C
330
4DA
100
AcDbEntity
  8
0
  6
Continuous
100
AcDbLine
 10
1.062291595557525
 20
-2.748063643762975
 30
0.0
 11
1.062291595557525
 21
-2.747866726179552
 31
0.0
  0
LINE
  5
B3D
330
4DA
100
AcDbEntity
  8
0
  6
Continuous
100
AcDbLine
 10
1.062291595557525
 20
-2.748299944863077
 30
0.0
 11
1.062291595557525
 21
-2.748063643762975
 31
0.0
  0
LINE
  5
B3E
330
4DA
100
AcDbEntity
  8
0
  6
Continuous
100
AcDbLine
 10
1.062291595557525
 20
-2.74853624596318
 30
0.0
 11
1.062291595557525
 21
-2.748299944863077
 31
0.0
  0
LINE
  5
B3F
330
4DA
100
AcDbEntity
  8
0
  6
Continuous
100
AcDbLine
 10
1.062291595557525
 20
-2.74877254706331
 30
0.0
 11
1.062291595557525
 21
-2.74853624596318
 31
0.0
  0
LINE
  5
B40
330
4DA
100
AcDbEntity
  8
0
  6
Continuous
100
AcDbLine
 10
1.062291595557525
 20
-2.749008848163413
 30
0.0
 11
1.062291595557525
 21
-2.74877254706331
 31
0.0
  0
LINE
  5
B41
330
4DA
100
AcDbEntity
  8
0
  6
Continuous
100
AcDbLine
 10
1.062252212040846
 20
-2.749284532780222
 30
0.0
 11
1.062291595557525
 21
-2.749008848163413
 31
0.0
  0
LINE
  5
B42
330
4DA
100
AcDbEntity
  8
0
  6
Continuous
100
AcDbLine
 10
1.062252212040846
 20
-2.749560217397004
 30
0.0
 11
1.062252212040846
 21
-2.749284532780222
 31
0.0
  0
LINE
  5
B43
330
4DA
100
AcDbEntity
  8
0
  6
Continuous
100
AcDbLine
 10
1.062252212040846
 20
-2.749835902013813
 30
0.0
 11
1.062252212040846
 21
-2.749560217397004
 31
0.0
  0
LINE
  5
B44
330
4DA
100
AcDbEntity
  8
0
  6
Continuous
100
AcDbLine
 10
1.062252212040846
 20
-2.750111586630623
 30
0.0
 11
1.062252212040846
 21
-2.749835902013813
 31
0.0
  0
LINE
  5
B45
330
4DA
100
AcDbEntity
  8
0
  6
Continuous
100
AcDbLine
 10
1.062252212040846
 20
-2.750387271247404
 30
0.0
 11
1.062252212040846
 21
-2.750111586630623
 31
0.0
  0
LINE
  5
B46
330
4DA
100
AcDbEntity
  8
0
  6
Continuous
100
AcDbLine
 10
1.062212828524167
 20
-2.750702339380893
 30
0.0
 11
1.062252212040846
 21
-2.750387271247404
 31
0.0
  0
LINE
  5
B47
330
4DA
100
AcDbEntity
  8
0
  6
Continuous
100
AcDbLine
 10
1.062212828524167
 20
-2.750978023997703
 30
0.0
 11
1.062212828524167
 21
-2.750702339380893
 31
0.0
  0
LINE
  5
B48
330
4DA
100
AcDbEntity
  8
0
  6
Continuous
100
AcDbLine
 10
1.062212828524167
 20
-2.751293092131163
 30
0.0
 11
1.062212828524167
 21
-2.750978023997703
 31
0.0
  0
LINE
  5
B49
330
4DA
100
AcDbEntity
  8
0
  6
Continuous
100
AcDbLine
 10
1.062212828524167
 20
-2.751608160264652
 30
0.0
 11
1.062212828524167
 21
-2.751293092131163
 31
0.0
  0
LINE
  5
B4A
330
4DA
100
AcDbEntity
  8
0
  6
Continuous
100
AcDbLine
 10
1.062212828524167
 20
-2.75192322839814
 30
0.0
 11
1.062212828524167
 21
-2.751608160264652
 31
0.0
  0
LINE
  5
B4B
330
4DA
100
AcDbEntity
  8
0
  6
Continuous
100
AcDbLine
 10
1.062173445007459
 20
-2.752277680048308
 30
0.0
 11
1.062212828524167
 21
-2.75192322839814
 31
0.0
  0
LINE
  5
B4C
330
4DA
100
AcDbEntity
  8
0
  6
Continuous
100
AcDbLine
 10
1.062173445007459
 20
-2.752592748181797
 30
0.0
 11
1.062173445007459
 21
-2.752277680048308
 31
0.0
  0
LINE
  5
B4D
330
4DA
100
AcDbEntity
  8
0
  6
Continuous
100
AcDbLine
 10
1.062173445007459
 20
-2.752947199831965
 30
0.0
 11
1.062173445007459
 21
-2.752592748181797
 31
0.0
  0
LINE
  5
B4E
330
4DA
100
AcDbEntity
  8
0
  6
Continuous
100
AcDbLine
 10
1.062134061490809
 20
-2.753301651482132
 30
0.0
 11
1.062173445007459
 21
-2.752947199831965
 31
0.0
  0
LINE
  5
B4F
330
4DA
100
AcDbEntity
  8
0
  6
Continuous
100
AcDbLine
 10
1.062134061490809
 20
-2.7536561031323
 30
0.0
 11
1.062134061490809
 21
-2.753301651482132
 31
0.0
  0
LINE
  5
B50
330
4DA
100
AcDbEntity
  8
0
  6
Continuous
100
AcDbLine
 10
1.062134061490809
 20
-2.754010554782468
 30
0.0
 11
1.062134061490809
 21
-2.7536561031323
 31
0.0
  0
LINE
  5
B51
330
4DA
100
AcDbEntity
  8
0
  6
Continuous
100
AcDbLine
 10
1.062134061490809
 20
-2.754365006432635
 30
0.0
 11
1.062134061490809
 21
-2.754010554782468
 31
0.0
  0
LINE
  5
B52
330
4DA
100
AcDbEntity
  8
0
  6
Continuous
100
AcDbLine
 10
1.062094677974101
 20
-2.754758841599482
 30
0.0
 11
1.062134061490809
 21
-2.754365006432635
 31
0.0
  0
LINE
  5
B53
330
4DA
100
AcDbEntity
  8
0
  6
Continuous
100
AcDbLine
 10
1.062094677974101
 20
-2.755152676766357
 30
0.0
 11
1.062094677974101
 21
-2.754758841599482
 31
0.0
  0
LINE
  5
B54
330
4DA
100
AcDbEntity
  8
0
  6
Continuous
100
AcDbLine
 10
1.062094677974101
 20
-2.755507128416525
 30
0.0
 11
1.062094677974101
 21
-2.755152676766357
 31
0.0
  0
LINE
  5
B55
330
4DA
100
AcDbEntity
  8
0
  6
Continuous
100
AcDbLine
 10
1.062055294457422
 20
-2.755900963583371
 30
0.0
 11
1.062094677974101
 21
-2.755507128416525
 31
0.0
  0
LINE
  5
B56
330
4DA
100
AcDbEntity
  8
0
  6
Continuous
100
AcDbLine
 10
1.062055294457422
 20
-2.756294798750218
 30
0.0
 11
1.062055294457422
 21
-2.755900963583371
 31
0.0
  0
LINE
  5
B57
330
4DA
100
AcDbEntity
  8
0
  6
Continuous
100
AcDbLine
 10
1.062055294457422
 20
-2.756688633917093
 30
0.0
 11
1.062055294457422
 21
-2.756294798750218
 31
0.0
  0
LINE
  5
B58
330
4DA
100
AcDbEntity
  8
0
  6
Continuous
100
AcDbLine
 10
1.062015910940743
 20
-2.75708246908394
 30
0.0
 11
1.062055294457422
 21
-2.756688633917093
 31
0.0
  0
LINE
  5
B59
330
4DA
100
AcDbEntity
  8
0
  6
Continuous
100
AcDbLine
 10
1.062015910940743
 20
-2.757515687767465
 30
0.0
 11
1.062015910940743
 21
-2.75708246908394
 31
0.0
  0
LINE
  5
B5A
330
4DA
100
AcDbEntity
  8
0
  6
Continuous
100
AcDbLine
 10
1.061976527424036
 20
-2.75790952293434
 30
0.0
 11
1.062015910940743
 21
-2.757515687767465
 31
0.0
  0
LINE
  5
B5B
330
4DA
100
AcDbEntity
  8
0
  6
Continuous
100
AcDbLine
 10
1.061976527424036
 20
-2.758303358101187
 30
0.0
 11
1.061976527424036
 21
-2.75790952293434
 31
0.0
  0
LINE
  5
B5C
330
4DA
100
AcDbEntity
  8
0
  6
Continuous
100
AcDbLine
 10
1.061976527424036
 20
-2.758736576784741
 30
0.0
 11
1.061976527424036
 21
-2.758303358101187
 31
0.0
  0
LINE
  5
B5D
330
4DA
100
AcDbEntity
  8
0
  6
Continuous
100
AcDbLine
 10
1.061937143907357
 20
-2.759169795468267
 30
0.0
 11
1.061976527424036
 21
-2.758736576784741
 31
0.0
  0
LINE
  5
B5E
330
4DA
100
AcDbEntity
  8
0
  6
Continuous
100
AcDbLine
 10
1.061937143907357
 20
-2.759563630635113
 30
0.0
 11
1.061937143907357
 21
-2.759169795468267
 31
0.0
  0
LINE
  5
B5F
330
4DA
100
AcDbEntity
  8
0
  6
Continuous
100
AcDbLine
 10
1.061897760390678
 20
-2.759996849318667
 30
0.0
 11
1.061937143907357
 21
-2.759563630635113
 31
0.0
  0
LINE
  5
B60
330
4DA
100
AcDbEntity
  8
0
  6
Continuous
100
AcDbLine
 10
1.061897760390678
 20
-2.760430068002222
 30
0.0
 11
1.061897760390678
 21
-2.759996849318667
 31
0.0
  0
LINE
  5
B61
330
4DA
100
AcDbEntity
  8
0
  6
Continuous
100
AcDbLine
 10
1.061858376873999
 20
-2.760863286685747
 30
0.0
 11
1.061897760390678
 21
-2.760430068002222
 31
0.0
  0
LINE
  5
B62
330
4DA
100
AcDbEntity
  8
0
  6
Continuous
100
AcDbLine
 10
1.061858376873999
 20
-2.761296505369273
 30
0.0
 11
1.061858376873999
 21
-2.760863286685747
 31
0.0
  0
LINE
  5
B63
330
4DA
100
AcDbEntity
  8
0
  6
Continuous
100
AcDbLine
 10
1.061818993357292
 20
-2.761729724052827
 30
0.0
 11
1.061858376873999
 21
-2.761296505369273
 31
0.0
  0
LINE
  5
B64
330
4DA
100
AcDbEntity
  8
0
  6
Continuous
100
AcDbLine
 10
1.061818993357292
 20
-2.762162942736381
 30
0.0
 11
1.061818993357292
 21
-2.761729724052827
 31
0.0
  0
LINE
  5
B65
330
4DA
100
AcDbEntity
  8
0
  6
Continuous
100
AcDbLine
 10
1.061779609840613
 20
-2.762635544936586
 30
0.0
 11
1.061818993357292
 21
-2.762162942736381
 31
0.0
  0
LINE
  5
B66
330
4DA
100
AcDbEntity
  8
0
  6
Continuous
100
AcDbLine
 10
1.061779609840613
 20
-2.76306876362014
 30
0.0
 11
1.061779609840613
 21
-2.762635544936586
 31
0.0
  0
LINE
  5
B67
330
4DA
100
AcDbEntity
  8
0
  6
Continuous
100
AcDbLine
 10
1.061740226323934
 20
-2.763501982303665
 30
0.0
 11
1.061779609840613
 21
-2.76306876362014
 31
0.0
  0
LINE
  5
B68
330
4DA
100
AcDbEntity
  8
0
  6
Continuous
100
AcDbLine
 10
1.061740226323934
 20
-2.763974584503898
 30
0.0
 11
1.061740226323934
 21
-2.763501982303665
 31
0.0
  0
LINE
  5
B69
330
4DA
100
AcDbEntity
  8
0
  6
Continuous
100
AcDbLine
 10
1.061700842807255
 20
-2.764407803187452
 30
0.0
 11
1.061740226323934
 21
-2.763974584503898
 31
0.0
  0
LINE
  5
B6A
330
4DA
100
AcDbEntity
  8
0
  6
Continuous
100
AcDbLine
 10
1.061661459290576
 20
-2.764841021870978
 30
0.0
 11
1.061700842807255
 21
-2.764407803187452
 31
0.0
  0
LINE
  5
B6B
330
4DA
100
AcDbEntity
  8
0
  6
Continuous
100
AcDbLine
 10
1.061661459290576
 20
-2.765313624071211
 30
0.0
 11
1.061661459290576
 21
-2.764841021870978
 31
0.0
  0
LINE
  5
B6C
330
4DA
100
AcDbEntity
  8
0
  6
Continuous
100
AcDbLine
 10
1.061622075773868
 20
-2.765746842754765
 30
0.0
 11
1.061661459290576
 21
-2.765313624071211
 31
0.0
  0
LINE
  5
B6D
330
4DA
100
AcDbEntity
  8
0
  6
Continuous
100
AcDbLine
 10
1.061622075773868
 20
-2.76621944495497
 30
0.0
 11
1.061622075773868
 21
-2.765746842754765
 31
0.0
  0
LINE
  5
B6E
330
4DA
100
AcDbEntity
  8
0
  6
Continuous
100
AcDbLine
 10
1.061582692257189
 20
-2.766652663638524
 30
0.0
 11
1.061622075773868
 21
-2.76621944495497
 31
0.0
  0
LINE
  5
B6F
330
4DA
100
AcDbEntity
  8
0
  6
Continuous
100
AcDbLine
 10
1.06154330874051
 20
-2.767125265838728
 30
0.0
 11
1.061582692257189
 21
-2.766652663638524
 31
0.0
  0
LINE
  5
B70
330
4DA
100
AcDbEntity
  8
0
  6
Continuous
100
AcDbLine
 10
1.06154330874051
 20
-2.767558484522282
 30
0.0
 11
1.06154330874051
 21
-2.767125265838728
 31
0.0
  0
LINE
  5
B71
330
4DA
100
AcDbEntity
  8
0
  6
Continuous
100
AcDbLine
 10
1.061503925223831
 20
-2.768031086722515
 30
0.0
 11
1.06154330874051
 21
-2.767558484522282
 31
0.0
  0
LINE
  5
B72
330
4DA
100
AcDbEntity
  8
0
  6
Continuous
100
AcDbLine
 10
1.061464541707124
 20
-2.768464305406041
 30
0.0
 11
1.061503925223831
 21
-2.768031086722515
 31
0.0
  0
LINE
  5
B73
330
4DA
100
AcDbEntity
  8
0
  6
Continuous
100
AcDbLine
 10
1.061464541707124
 20
-2.768936907606274
 30
0.0
 11
1.061464541707124
 21
-2.768464305406041
 31
0.0
  0
LINE
  5
B74
330
4DA
100
AcDbEntity
  8
0
  6
Continuous
100
AcDbLine
 10
1.061425158190445
 20
-2.7693701262898
 30
0.0
 11
1.061464541707124
 21
-2.768936907606274
 31
0.0
  0
LINE
  5
B75
330
4DA
100
AcDbEntity
  8
0
  6
Continuous
100
AcDbLine
 10
1.061385774673766
 20
-2.769842728490033
 30
0.0
 11
1.061425158190445
 21
-2.7693701262898
 31
0.0
  0
LINE
  5
B76
330
4DA
100
AcDbEntity
  8
0
  6
Continuous
100
AcDbLine
 10
1.061385774673766
 20
-2.770275947173587
 30
0.0
 11
1.061385774673766
 21
-2.769842728490033
 31
0.0
  0
LINE
  5
B77
330
4DA
100
AcDbEntity
  8
0
  6
Continuous
100
AcDbLine
 10
1.061346391157087
 20
-2.77074854937382
 30
0.0
 11
1.061385774673766
 21
-2.770275947173587
 31
0.0
  0
LINE
  5
B78
330
4DA
100
AcDbEntity
  8
0
  6
Continuous
100
AcDbLine
 10
1.06130700764038
 20
-2.771181768057346
 30
0.0
 11
1.061346391157087
 21
-2.77074854937382
 31
0.0
  0
LINE
  5
B79
330
4DA
100
AcDbEntity
  8
0
  6
Continuous
100
AcDbLine
 10
1.061267624123701
 20
-2.771614986740871
 30
0.0
 11
1.06130700764038
 21
-2.771181768057346
 31
0.0
  0
LINE
  5
B7A
330
4DA
100
AcDbEntity
  8
0
  6
Continuous
100
AcDbLine
 10
1.061228240607022
 20
-2.772087588941104
 30
0.0
 11
1.061267624123701
 21
-2.771614986740871
 31
0.0
  0
LINE
  5
B7B
330
4DA
100
AcDbEntity
  8
0
  6
Continuous
100
AcDbLine
 10
1.061228240607022
 20
-2.772520807624658
 30
0.0
 11
1.061228240607022
 21
-2.772087588941104
 31
0.0
  0
LINE
  5
B7C
330
4DA
100
AcDbEntity
  8
0
  6
Continuous
100
AcDbLine
 10
1.061188857090343
 20
-2.772954026308184
 30
0.0
 11
1.061228240607022
 21
-2.772520807624658
 31
0.0
  0
LINE
  5
B7D
330
4DA
100
AcDbEntity
  8
0
  6
Continuous
100
AcDbLine
 10
1.061149473573664
 20
-2.773387244991738
 30
0.0
 11
1.061188857090343
 21
-2.772954026308184
 31
0.0
  0
LINE
  5
B7E
330
4DA
100
AcDbEntity
  8
0
  6
Continuous
100
AcDbLine
 10
1.061110090056956
 20
-2.773820463675264
 30
0.0
 11
1.061149473573664
 21
-2.773387244991738
 31
0.0
  0
LINE
  5
B7F
330
4DA
100
AcDbEntity
  8
0
  6
Continuous
100
AcDbLine
 10
1.061070706540277
 20
-2.774293065875497
 30
0.0
 11
1.061110090056956
 21
-2.773820463675264
 31
0.0
  0
LINE
  5
B80
330
4DA
100
AcDbEntity
  8
0
  6
Continuous
100
AcDbLine
 10
1.061031323023598
 20
-2.774726284559051
 30
0.0
 11
1.061070706540277
 21
-2.774293065875497
 31
0.0
  0
LINE
  5
B81
330
4DA
100
AcDbEntity
  8
0
  6
Continuous
100
AcDbLine
 10
1.061031323023598
 20
-2.775120119725897
 30
0.0
 11
1.061031323023598
 21
-2.774726284559051
 31
0.0
  0
LINE
  5
B82
330
4DA
100
AcDbEntity
  8
0
  6
Continuous
100
AcDbLine
 10
1.060991939506919
 20
-2.775553338409423
 30
0.0
 11
1.061031323023598
 21
-2.775120119725897
 31
0.0
  0
LINE
  5
B83
330
4DA
100
AcDbEntity
  8
0
  6
Continuous
100
AcDbLine
 10
1.060952555990212
 20
-2.775986557092977
 30
0.0
 11
1.060991939506919
 21
-2.775553338409423
 31
0.0
  0
LINE
  5
B84
330
4DA
100
AcDbEntity
  8
0
  6
Continuous
100
AcDbLine
 10
1.060913172473533
 20
-2.776419775776503
 30
0.0
 11
1.060952555990212
 21
-2.775986557092977
 31
0.0
  0
LINE
  5
B85
330
4DA
100
AcDbEntity
  8
0
  6
Continuous
100
AcDbLine
 10
1.060873788956854
 20
-2.776813610943378
 30
0.0
 11
1.060913172473533
 21
-2.776419775776503
 31
0.0
  0
LINE
  5
B86
330
4DA
100
AcDbEntity
  8
0
  6
Continuous
100
AcDbLine
 10
1.060834405440147
 20
-2.777246829626903
 30
0.0
 11
1.060873788956854
 21
-2.776813610943378
 31
0.0
  0
LINE
  5
B87
330
4DA
100
AcDbEntity
  8
0
  6
Continuous
100
AcDbLine
 10
1.060795021923496
 20
-2.77764066479375
 30
0.0
 11
1.060834405440147
 21
-2.777246829626903
 31
0.0
  0
LINE
  5
B88
330
4DA
100
AcDbEntity
  8
0
  6
Continuous
100
AcDbLine
 10
1.060755638406789
 20
-2.778073883477304
 30
0.0
 11
1.060795021923496
 21
-2.77764066479375
 31
0.0
  0
LINE
  5
B89
330
4DA
100
AcDbEntity
  8
0
  6
Continuous
100
AcDbLine
 10
1.06071625489011
 20
-2.778467718644151
 30
0.0
 11
1.060755638406789
 21
-2.778073883477304
 31
0.0
  0
LINE
  5
B8A
330
4DA
100
AcDbEntity
  8
0
  6
Continuous
100
AcDbLine
 10
1.060676871373431
 20
-2.779058471394449
 30
0.0
 11
1.06071625489011
 21
-2.778467718644151
 31
0.0
  0
LINE
  5
B8B
330
4DA
100
AcDbEntity
  8
0
  6
Continuous
100
AcDbLine
 10
1.060676871373431
 20
-2.779924908761529
 30
0.0
 11
1.060676871373431
 21
-2.779058471394449
 31
0.0
  0
LINE
  5
B8C
330
4DA
100
AcDbEntity
  8
0
  6
Continuous
100
AcDbLine
 10
1.060637487856752
 20
-2.780870113161967
 30
0.0
 11
1.060676871373431
 21
-2.779924908761529
 31
0.0
  0
LINE
  5
B8D
330
4DA
100
AcDbEntity
  8
0
  6
Continuous
100
AcDbLine
 10
1.042796754798217
 20
-2.846089216793131
 30
0.0
 11
1.044017643815465
 21
-2.843332370625148
 31
0.0
  0
LINE
  5
B8E
330
4DA
100
AcDbEntity
  8
0
  6
Continuous
100
AcDbLine
 10
0.376270118413089
 20
-1.242234883293519
 30
0.0
 11
1.061858376873999
 21
-2.247420379657114
 31
0.0
  0
LINE
  5
B8F
330
4DA
100
AcDbEntity
  8
0
  6
Continuous
100
AcDbLine
 10
1.088836085803535
 20
-2.247420379657114
 30
0.0
 11
1.087890881403097
 21
-2.247420379657114
 31
0.0
  0
LINE
  5
B90
330
4DA
100
AcDbEntity
  8
0
  6
Continuous
100
AcDbLine
 10
1.063906319741619
 20
-2.247420379657114
 30
0.0
 11
1.063551868091451
 21
-2.247420379657114
 31
0.0
  0
LINE
  5
B91
330
4DA
100
AcDbEntity
  8
0
  6
Continuous
100
AcDbLine
 10
1.064300154908494
 20
-2.247420379657114
 30
0.0
 11
1.063906319741619
 21
-2.247420379657114
 31
0.0
  0
LINE
  5
B92
330
4DA
100
AcDbEntity
  8
0
  6
Continuous
100
AcDbLine
 10
1.064733373592019
 20
-2.247420379657114
 30
0.0
 11
1.064300154908494
 21
-2.247420379657114
 31
0.0
  0
LINE
  5
B93
330
4DA
100
AcDbEntity
  8
0
  6
Continuous
100
AcDbLine
 10
1.065166592275573
 20
-2.247420379657114
 30
0.0
 11
1.064733373592019
 21
-2.247420379657114
 31
0.0
  0
LINE
  5
B94
330
4DA
100
AcDbEntity
  8
0
  6
Continuous
100
AcDbLine
 10
1.065639194475807
 20
-2.247420379657114
 30
0.0
 11
1.065166592275573
 21
-2.247420379657114
 31
0.0
  0
LINE
  5
B95
330
4DA
100
AcDbEntity
  8
0
  6
Continuous
100
AcDbLine
 10
1.066151180192719
 20
-2.247420379657114
 30
0.0
 11
1.065639194475807
 21
-2.247420379657114
 31
0.0
  0
LINE
  5
B96
330
4DA
100
AcDbEntity
  8
0
  6
Continuous
100
AcDbLine
 10
1.066663165909631
 20
-2.247420379657114
 30
0.0
 11
1.066151180192719
 21
-2.247420379657114
 31
0.0
  0
LINE
  5
B97
330
4DA
100
AcDbEntity
  8
0
  6
Continuous
100
AcDbLine
 10
1.067214535143222
 20
-2.247420379657114
 30
0.0
 11
1.066663165909631
 21
-2.247420379657114
 31
0.0
  0
LINE
  5
B98
330
4DA
100
AcDbEntity
  8
0
  6
Continuous
100
AcDbLine
 10
1.067805287893492
 20
-2.247420379657114
 30
0.0
 11
1.067214535143222
 21
-2.247420379657114
 31
0.0
  0
LINE
  5
B99
330
4DA
100
AcDbEntity
  8
0
  6
Continuous
100
AcDbLine
 10
1.06839604064379
 20
-2.247420379657114
 30
0.0
 11
1.067805287893492
 21
-2.247420379657114
 31
0.0
  0
LINE
  5
B9A
330
4DA
100
AcDbEntity
  8
0
  6
Continuous
100
AcDbLine
 10
1.069026176910739
 20
-2.247420379657114
 30
0.0
 11
1.06839604064379
 21
-2.247420379657114
 31
0.0
  0
LINE
  5
B9B
330
4DA
100
AcDbEntity
  8
0
  6
Continuous
100
AcDbLine
 10
1.069656313177716
 20
-2.247420379657114
 30
0.0
 11
1.069026176910739
 21
-2.247420379657114
 31
0.0
  0
LINE
  5
B9C
330
4DA
100
AcDbEntity
  8
0
  6
Continuous
100
AcDbLine
 10
1.070325832961373
 20
-2.247420379657114
 30
0.0
 11
1.069656313177716
 21
-2.247420379657114
 31
0.0
  0
LINE
  5
B9D
330
4DA
100
AcDbEntity
  8
0
  6
Continuous
100
AcDbLine
 10
1.071034736261708
 20
-2.247420379657114
 30
0.0
 11
1.070325832961373
 21
-2.247420379657114
 31
0.0
  0
LINE
  5
B9E
330
4DA
100
AcDbEntity
  8
0
  6
Continuous
100
AcDbLine
 10
1.071743639562043
 20
-2.247420379657114
 30
0.0
 11
1.071034736261708
 21
-2.247420379657114
 31
0.0
  0
LINE
  5
B9F
330
4DA
100
AcDbEntity
  8
0
  6
Continuous
100
AcDbLine
 10
1.072452542862379
 20
-2.247420379657114
 30
0.0
 11
1.071743639562043
 21
-2.247420379657114
 31
0.0
  0
LINE
  5
BA0
330
4DA
100
AcDbEntity
  8
0
  6
Continuous
100
AcDbLine
 10
1.073200829679393
 20
-2.247420379657114
 30
0.0
 11
1.072452542862379
 21
-2.247420379657114
 31
0.0
  0
LINE
  5
BA1
330
4DA
100
AcDbEntity
  8
0
  6
Continuous
100
AcDbLine
 10
1.073949116496436
 20
-2.247420379657114
 30
0.0
 11
1.073200829679393
 21
-2.247420379657114
 31
0.0
  0
LINE
  5
BA2
330
4DA
100
AcDbEntity
  8
0
  6
Continuous
100
AcDbLine
 10
1.074736786830158
 20
-2.247420379657114
 30
0.0
 11
1.073949116496436
 21
-2.247420379657114
 31
0.0
  0
LINE
  5
BA3
330
4DA
100
AcDbEntity
  8
0
  6
Continuous
100
AcDbLine
 10
1.075524457163851
 20
-2.247420379657114
 30
0.0
 11
1.074736786830158
 21
-2.247420379657114
 31
0.0
  0
LINE
  5
BA4
330
4DA
100
AcDbEntity
  8
0
  6
Continuous
100
AcDbLine
 10
1.076351511014252
 20
-2.247420379657114
 30
0.0
 11
1.075524457163851
 21
-2.247420379657114
 31
0.0
  0
LINE
  5
BA5
330
4DA
100
AcDbEntity
  8
0
  6
Continuous
100
AcDbLine
 10
1.077178564864652
 20
-2.247420379657114
 30
0.0
 11
1.076351511014252
 21
-2.247420379657114
 31
0.0
  0
LINE
  5
BA6
330
4DA
100
AcDbEntity
  8
0
  6
Continuous
100
AcDbLine
 10
1.078005618715025
 20
-2.247420379657114
 30
0.0
 11
1.077178564864652
 21
-2.247420379657114
 31
0.0
  0
LINE
  5
BA7
330
4DA
100
AcDbEntity
  8
0
  6
Continuous
100
AcDbLine
 10
1.078872056082133
 20
-2.247420379657114
 30
0.0
 11
1.078005618715025
 21
-2.247420379657114
 31
0.0
  0
LINE
  5
BA8
330
4DA
100
AcDbEntity
  8
0
  6
Continuous
100
AcDbLine
 10
1.079738493449212
 20
-2.247420379657114
 30
0.0
 11
1.078872056082133
 21
-2.247420379657114
 31
0.0
  0
LINE
  5
BA9
330
4DA
100
AcDbEntity
  8
0
  6
Continuous
100
AcDbLine
 10
1.080604930816292
 20
-2.247420379657114
 30
0.0
 11
1.079738493449212
 21
-2.247420379657114
 31
0.0
  0
LINE
  5
BAA
330
4DA
100
AcDbEntity
  8
0
  6
Continuous
100
AcDbLine
 10
1.081471368183372
 20
-2.247420379657114
 30
0.0
 11
1.080604930816292
 21
-2.247420379657114
 31
0.0
  0
LINE
  5
BAB
330
4DA
100
AcDbEntity
  8
0
  6
Continuous
100
AcDbLine
 10
1.08237718906713
 20
-2.247420379657114
 30
0.0
 11
1.081471368183372
 21
-2.247420379657114
 31
0.0
  0
LINE
  5
BAC
330
4DA
100
AcDbEntity
  8
0
  6
Continuous
100
AcDbLine
 10
1.083283009950889
 20
-2.247420379657114
 30
0.0
 11
1.08237718906713
 21
-2.247420379657114
 31
0.0
  0
LINE
  5
BAD
330
4DA
100
AcDbEntity
  8
0
  6
Continuous
100
AcDbLine
 10
1.084188830834648
 20
-2.247420379657114
 30
0.0
 11
1.083283009950889
 21
-2.247420379657114
 31
0.0
  0
LINE
  5
BAE
330
4DA
100
AcDbEntity
  8
0
  6
Continuous
100
AcDbLine
 10
1.085094651718435
 20
-2.247420379657114
 30
0.0
 11
1.084188830834648
 21
-2.247420379657114
 31
0.0
  0
LINE
  5
BAF
330
4DA
100
AcDbEntity
  8
0
  6
Continuous
100
AcDbLine
 10
1.086039856118873
 20
-2.247420379657114
 30
0.0
 11
1.085094651718435
 21
-2.247420379657114
 31
0.0
  0
LINE
  5
BB0
330
4DA
100
AcDbEntity
  8
0
  6
Continuous
100
AcDbLine
 10
1.086985060519339
 20
-2.247420379657114
 30
0.0
 11
1.086039856118873
 21
-2.247420379657114
 31
0.0
  0
LINE
  5
BB1
330
4DA
100
AcDbEntity
  8
0
  6
Continuous
100
AcDbLine
 10
1.087890881403097
 20
-2.247420379657114
 30
0.0
 11
1.086985060519339
 21
-2.247420379657114
 31
0.0
  0
LINE
  5
BB2
330
4DA
100
AcDbEntity
  8
0
  6
Continuous
100
AcDbLine
 10
1.061897760390678
 20
-2.247420379657114
 30
0.0
 11
1.061858376873999
 21
-2.247420379657114
 31
0.0
  0
LINE
  5
BB3
330
4DA
100
AcDbEntity
  8
0
  6
Continuous
100
AcDbLine
 10
1.061976527424036
 20
-2.247420379657114
 30
0.0
 11
1.061897760390678
 21
-2.247420379657114
 31
0.0
  0
LINE
  5
BB4
330
4DA
100
AcDbEntity
  8
0
  6
Continuous
100
AcDbLine
 10
1.062094677974101
 20
-2.247420379657114
 30
0.0
 11
1.061976527424036
 21
-2.247420379657114
 31
0.0
  0
LINE
  5
BB5
330
4DA
100
AcDbEntity
  8
0
  6
Continuous
100
AcDbLine
 10
1.062252212040846
 20
-2.247420379657114
 30
0.0
 11
1.062094677974101
 21
-2.247420379657114
 31
0.0
  0
LINE
  5
BB6
330
4DA
100
AcDbEntity
  8
0
  6
Continuous
100
AcDbLine
 10
1.062449129624269
 20
-2.247420379657114
 30
0.0
 11
1.062252212040846
 21
-2.247420379657114
 31
0.0
  0
LINE
  5
BB7
330
4DA
100
AcDbEntity
  8
0
  6
Continuous
100
AcDbLine
 10
1.062685430724371
 20
-2.247420379657114
 30
0.0
 11
1.062449129624269
 21
-2.247420379657114
 31
0.0
  0
LINE
  5
BB8
330
4DA
100
AcDbEntity
  8
0
  6
Continuous
100
AcDbLine
 10
1.062961115341181
 20
-2.247420379657114
 30
0.0
 11
1.062685430724371
 21
-2.247420379657114
 31
0.0
  0
LINE
  5
BB9
330
4DA
100
AcDbEntity
  8
0
  6
Continuous
100
AcDbLine
 10
1.063236799957991
 20
-2.247420379657114
 30
0.0
 11
1.062961115341181
 21
-2.247420379657114
 31
0.0
  0
LINE
  5
BBA
330
4DA
100
AcDbEntity
  8
0
  6
Continuous
100
AcDbLine
 10
1.063551868091451
 20
-2.247420379657114
 30
0.0
 11
1.063236799957991
 21
-2.247420379657114
 31
0.0
  0
LINE
  5
BBB
330
4DA
100
AcDbEntity
  8
0
  6
Continuous
100
AcDbLine
 10
1.089781290204001
 20
-2.247420379657114
 30
0.0
 11
1.088836085803535
 21
-2.247420379657114
 31
0.0
  0
LINE
  5
BBC
330
4DA
100
AcDbEntity
  8
0
  6
Continuous
100
AcDbLine
 10
1.090726494604439
 20
-2.247420379657114
 30
0.0
 11
1.089781290204001
 21
-2.247420379657114
 31
0.0
  0
LINE
  5
BBD
330
4DA
100
AcDbEntity
  8
0
  6
Continuous
100
AcDbLine
 10
1.091671699004905
 20
-2.247420379657114
 30
0.0
 11
1.090726494604439
 21
-2.247420379657114
 31
0.0
  0
LINE
  5
BBE
330
4DA
100
AcDbEntity
  8
0
  6
Continuous
100
AcDbLine
 10
1.092616903405343
 20
-2.247420379657114
 30
0.0
 11
1.091671699004905
 21
-2.247420379657114
 31
0.0
  0
LINE
  5
BBF
330
4DA
100
AcDbEntity
  8
0
  6
Continuous
100
AcDbLine
 10
1.093562107805809
 20
-2.247420379657114
 30
0.0
 11
1.092616903405343
 21
-2.247420379657114
 31
0.0
  0
LINE
  5
BC0
330
4DA
100
AcDbEntity
  8
0
  6
Continuous
100
AcDbLine
 10
1.094507312206246
 20
-2.247420379657114
 30
0.0
 11
1.093562107805809
 21
-2.247420379657114
 31
0.0
  0
LINE
  5
BC1
330
4DA
100
AcDbEntity
  8
0
  6
Continuous
100
AcDbLine
 10
1.095452516606712
 20
-2.247420379657114
 30
0.0
 11
1.094507312206246
 21
-2.247420379657114
 31
0.0
  0
LINE
  5
BC2
330
4DA
100
AcDbEntity
  8
0
  6
Continuous
100
AcDbLine
 10
1.096397721007178
 20
-2.247420379657114
 30
0.0
 11
1.095452516606712
 21
-2.247420379657114
 31
0.0
  0
LINE
  5
BC3
330
4DA
100
AcDbEntity
  8
0
  6
Continuous
100
AcDbLine
 10
1.097342925407616
 20
-2.247420379657114
 30
0.0
 11
1.096397721007178
 21
-2.247420379657114
 31
0.0
  0
LINE
  5
BC4
330
4DA
100
AcDbEntity
  8
0
  6
Continuous
100
AcDbLine
 10
1.098288129808054
 20
-2.247420379657114
 30
0.0
 11
1.097342925407616
 21
-2.247420379657114
 31
0.0
  0
LINE
  5
BC5
330
4DA
100
AcDbEntity
  8
0
  6
Continuous
100
AcDbLine
 10
1.09923333420852
 20
-2.247420379657114
 30
0.0
 11
1.098288129808054
 21
-2.247420379657114
 31
0.0
  0
LINE
  5
BC6
330
4DA
100
AcDbEntity
  8
0
  6
Continuous
100
AcDbLine
 10
1.100139155092278
 20
-2.247420379657114
 30
0.0
 11
1.09923333420852
 21
-2.247420379657114
 31
0.0
  0
LINE
  5
BC7
330
4DA
100
AcDbEntity
  8
0
  6
Continuous
100
AcDbLine
 10
1.101084359492716
 20
-2.247420379657114
 30
0.0
 11
1.100139155092278
 21
-2.247420379657114
 31
0.0
  0
LINE
  5
BC8
330
4DA
100
AcDbEntity
  8
0
  6
Continuous
100
AcDbLine
 10
1.101990180376503
 20
-2.247420379657114
 30
0.0
 11
1.101084359492716
 21
-2.247420379657114
 31
0.0
  0
LINE
  5
BC9
330
4DA
100
AcDbEntity
  8
0
  6
Continuous
100
AcDbLine
 10
1.102896001260262
 20
-2.247420379657114
 30
0.0
 11
1.101990180376503
 21
-2.247420379657114
 31
0.0
  0
LINE
  5
BCA
330
4DA
100
AcDbEntity
  8
0
  6
Continuous
100
AcDbLine
 10
1.103801822144021
 20
-2.247420379657114
 30
0.0
 11
1.102896001260262
 21
-2.247420379657114
 31
0.0
  0
LINE
  5
BCB
330
4DA
100
AcDbEntity
  8
0
  6
Continuous
100
AcDbLine
 10
1.1046682595111
 20
-2.247420379657114
 30
0.0
 11
1.103801822144021
 21
-2.247420379657114
 31
0.0
  0
LINE
  5
BCC
330
4DA
100
AcDbEntity
  8
0
  6
Continuous
100
AcDbLine
 10
1.105574080394887
 20
-2.247420379657114
 30
0.0
 11
1.1046682595111
 21
-2.247420379657114
 31
0.0
  0
LINE
  5
BCD
330
4DA
100
AcDbEntity
  8
0
  6
Continuous
100
AcDbLine
 10
1.106440517761967
 20
-2.247420379657114
 30
0.0
 11
1.105574080394887
 21
-2.247420379657114
 31
0.0
  0
LINE
  5
BCE
330
4DA
100
AcDbEntity
  8
0
  6
Continuous
100
AcDbLine
 10
1.107267571612368
 20
-2.247420379657114
 30
0.0
 11
1.106440517761967
 21
-2.247420379657114
 31
0.0
  0
LINE
  5
BCF
330
4DA
100
AcDbEntity
  8
0
  6
Continuous
100
AcDbLine
 10
1.108134008979448
 20
-2.247420379657114
 30
0.0
 11
1.107267571612368
 21
-2.247420379657114
 31
0.0
  0
LINE
  5
BD0
330
4DA
100
AcDbEntity
  8
0
  6
Continuous
100
AcDbLine
 10
1.10896106282982
 20
-2.247420379657114
 30
0.0
 11
1.108134008979448
 21
-2.247420379657114
 31
0.0
  0
LINE
  5
BD1
330
4DA
100
AcDbEntity
  8
0
  6
Continuous
100
AcDbLine
 10
1.109748733163542
 20
-2.247420379657114
 30
0.0
 11
1.10896106282982
 21
-2.247420379657114
 31
0.0
  0
LINE
  5
BD2
330
4DA
100
AcDbEntity
  8
0
  6
Continuous
100
AcDbLine
 10
1.110575787013942
 20
-2.247420379657114
 30
0.0
 11
1.109748733163542
 21
-2.247420379657114
 31
0.0
  0
LINE
  5
BD3
330
4DA
100
AcDbEntity
  8
0
  6
Continuous
100
AcDbLine
 10
1.111363457347636
 20
-2.247420379657114
 30
0.0
 11
1.110575787013942
 21
-2.247420379657114
 31
0.0
  0
LINE
  5
BD4
330
4DA
100
AcDbEntity
  8
0
  6
Continuous
100
AcDbLine
 10
1.11211174416465
 20
-2.247420379657114
 30
0.0
 11
1.111363457347636
 21
-2.247420379657114
 31
0.0
  0
LINE
  5
BD5
330
4DA
100
AcDbEntity
  8
0
  6
Continuous
100
AcDbLine
 10
1.112860030981693
 20
-2.247420379657114
 30
0.0
 11
1.11211174416465
 21
-2.247420379657114
 31
0.0
  0
LINE
  5
BD6
330
4DA
100
AcDbEntity
  8
0
  6
Continuous
100
AcDbLine
 10
1.113608317798707
 20
-2.247420379657114
 30
0.0
 11
1.112860030981693
 21
-2.247420379657114
 31
0.0
  0
LINE
  5
BD7
330
4DA
100
AcDbEntity
  8
0
  6
Continuous
100
AcDbLine
 10
1.114317221099042
 20
-2.247420379657114
 30
0.0
 11
1.113608317798707
 21
-2.247420379657114
 31
0.0
  0
LINE
  5
BD8
330
4DA
100
AcDbEntity
  8
0
  6
Continuous
100
AcDbLine
 10
1.114986740882727
 20
-2.247420379657114
 30
0.0
 11
1.114317221099042
 21
-2.247420379657114
 31
0.0
  0
LINE
  5
BD9
330
4DA
100
AcDbEntity
  8
0
  6
Continuous
100
AcDbLine
 10
1.115695644183034
 20
-2.247420379657114
 30
0.0
 11
1.114986740882727
 21
-2.247420379657114
 31
0.0
  0
LINE
  5
BDA
330
4DA
100
AcDbEntity
  8
0
  6
Continuous
100
AcDbLine
 10
1.116325780450011
 20
-2.247420379657114
 30
0.0
 11
1.115695644183034
 21
-2.247420379657114
 31
0.0
  0
LINE
  5
BDB
330
4DA
100
AcDbEntity
  8
0
  6
Continuous
100
AcDbLine
 10
1.116955916716989
 20
-2.247420379657114
 30
0.0
 11
1.116325780450011
 21
-2.247420379657114
 31
0.0
  0
LINE
  5
BDC
330
4DA
100
AcDbEntity
  8
0
  6
Continuous
100
AcDbLine
 10
1.123694436421885
 20
-2.247420379657114
 30
0.0
 11
1.116955916716989
 21
-2.247420379657114
 31
0.0
  0
LINE
  5
BDD
330
4DA
100
AcDbEntity
  8
0
  6
Continuous
100
AcDbLine
 10
0.376270118413089
 20
-1.242234883293519
 30
0.0
 11
0.376270118413089
 21
-1.051539895502401
 31
0.0
  0
LINE
  5
BDE
330
4DA
100
AcDbEntity
  8
0
  6
Continuous
100
AcDbLine
 10
0.340667419329435
 20
-0.4854018431485656
 30
0.0
 11
0.3383831753616562
 21
-0.4842203376480257
 31
0.0
  0
LINE
  5
BDF
330
4DA
100
AcDbEntity
  8
0
  6
Continuous
100
AcDbLine
 10
0.1910100559245791
 20
-0.2848215926694024
 30
0.0
 11
0.1898679339407181
 21
-0.2789140651665889
 31
0.0
  0
LINE
  5
BE0
330
4DA
100
AcDbEntity
  8
0
  6
Continuous
100
AcDbLine
 10
0.33369653687609
 20
-0.4817391760968235
 30
0.0
 11
0.3312941423582743
 21
-0.4804001365295392
 31
0.0
  0
LINE
  5
BE1
330
4DA
100
AcDbEntity
  8
0
  6
Continuous
100
AcDbLine
 10
0.3133746422663819
 20
-0.4695696694410288
 30
0.0
 11
0.3106965631317564
 21
-0.4677974111901904
 31
0.0
  0
LINE
  5
BE2
330
4DA
100
AcDbEntity
  8
0
  6
Continuous
100
AcDbLine
 10
0.3160133378843
 20
-0.4713025441751882
 30
0.0
 11
0.3133746422663819
 21
-0.4695696694410288
 31
0.0
  0
LINE
  5
BE3
330
4DA
100
AcDbEntity
  8
0
  6
Continuous
100
AcDbLine
 10
0.3186520335022465
 20
-0.4729566518759612
 30
0.0
 11
0.3160133378843
 21
-0.4713025441751882
 31
0.0
  0
LINE
  5
BE4
330
4DA
100
AcDbEntity
  8
0
  6
Continuous
100
AcDbLine
 10
0.3212513456034571
 20
-0.4745713760600836
 30
0.0
 11
0.3186520335022465
 21
-0.4729566518759612
 31
0.0
  0
LINE
  5
BE5
330
4DA
100
AcDbEntity
  8
0
  6
Continuous
100
AcDbLine
 10
0.3238112741880172
 20
-0.4761073332107913
 30
0.0
 11
0.3212513456034571
 21
-0.4745713760600836
 31
0.0
  0
LINE
  5
BE6
330
4DA
100
AcDbEntity
  8
0
  6
Continuous
100
AcDbLine
 10
0.3263318192559268
 20
-0.4776039068448484
 30
0.0
 11
0.3238112741880172
 21
-0.4761073332107913
 31
0.0
  0
LINE
  5
BE7
330
4DA
100
AcDbEntity
  8
0
  6
Continuous
100
AcDbLine
 10
0.3288129808071005
 20
-0.4790217134455475
 30
0.0
 11
0.3263318192559268
 21
-0.4776039068448484
 31
0.0
  0
LINE
  5
BE8
330
4DA
100
AcDbEntity
  8
0
  6
Continuous
100
AcDbLine
 10
0.3312941423582743
 20
-0.4804001365295392
 30
0.0
 11
0.3288129808071005
 21
-0.4790217134455475
 31
0.0
  0
LINE
  5
BE9
330
4DA
100
AcDbEntity
  8
0
  6
Continuous
100
AcDbLine
 10
0.3360595478772268
 20
-0.4829994486307783
 30
0.0
 11
0.33369653687609
 21
-0.4817391760968235
 31
0.0
  0
LINE
  5
BEA
330
4DA
100
AcDbEntity
  8
0
  6
Continuous
100
AcDbLine
 10
0.3383831753616562
 20
-0.4842203376480257
 30
0.0
 11
0.3360595478772268
 21
-0.4829994486307783
 31
0.0
  0
LINE
  5
BEB
330
4DA
100
AcDbEntity
  8
0
  6
Continuous
100
AcDbLine
 10
0.2885630267545309
 20
-0.4512563341822898
 30
0.0
 11
0.2857667970698401
 21
-0.448893323181153
 31
0.0
  0
LINE
  5
BEC
330
4DA
100
AcDbEntity
  8
0
  6
Continuous
100
AcDbLine
 10
0.2913986399558723
 20
-0.4535405781500402
 30
0.0
 11
0.2885630267545309
 21
-0.4512563341822898
 31
0.0
  0
LINE
  5
BED
330
4DA
100
AcDbEntity
  8
0
  6
Continuous
100
AcDbLine
 10
0.2941948696405347
 20
-0.4557854386011116
 30
0.0
 11
0.2913986399558723
 21
-0.4535405781500402
 31
0.0
  0
LINE
  5
BEE
330
4DA
100
AcDbEntity
  8
0
  6
Continuous
100
AcDbLine
 10
0.2969910993252256
 20
-0.4579121485021176
 30
0.0
 11
0.2941948696405347
 21
-0.4557854386011116
 31
0.0
  0
LINE
  5
BEF
330
4DA
100
AcDbEntity
  8
0
  6
Continuous
100
AcDbLine
 10
0.299747945493209
 20
-0.4600388584031237
 30
0.0
 11
0.2969910993252256
 21
-0.4579121485021176
 31
0.0
  0
LINE
  5
BF0
330
4DA
100
AcDbEntity
  8
0
  6
Continuous
100
AcDbLine
 10
0.3025047916611925
 20
-0.4620474177540928
 30
0.0
 11
0.299747945493209
 21
-0.4600388584031237
 31
0.0
  0
LINE
  5
BF1
330
4DA
100
AcDbEntity
  8
0
  6
Continuous
100
AcDbLine
 10
0.3052616378291759
 20
-0.4640165935883829
 30
0.0
 11
0.3025047916611925
 21
-0.4620474177540928
 31
0.0
  0
LINE
  5
BF2
330
4DA
100
AcDbEntity
  8
0
  6
Continuous
100
AcDbLine
 10
0.3079791004804804
 20
-0.4659463859059656
 30
0.0
 11
0.3052616378291759
 21
-0.4640165935883829
 31
0.0
  0
LINE
  5
BF3
330
4DA
100
AcDbEntity
  8
0
  6
Continuous
100
AcDbLine
 10
0.2829311838684987
 20
-0.4464515451466582
 30
0.0
 11
0.2800955706671573
 21
-0.4439703835954561
 31
0.0
  0
LINE
  5
BF4
330
4DA
100
AcDbEntity
  8
0
  6
Continuous
100
AcDbLine
 10
0.238939795730829
 20
-0.3977735185233939
 30
0.0
 11
0.2363404836295615
 21
-0.3940714679549444
 31
0.0
  0
LINE
  5
BF5
330
4DA
100
AcDbEntity
  8
0
  6
Continuous
100
AcDbLine
 10
0.2415391078320681
 20
-0.4013968020584571
 30
0.0
 11
0.238939795730829
 21
-0.3977735185233939
 31
0.0
  0
LINE
  5
BF6
330
4DA
100
AcDbEntity
  8
0
  6
Continuous
100
AcDbLine
 10
0.2441384199333072
 20
-0.4049019350434549
 30
0.0
 11
0.2415391078320681
 21
-0.4013968020584571
 31
0.0
  0
LINE
  5
BF7
330
4DA
100
AcDbEntity
  8
0
  6
Continuous
100
AcDbLine
 10
0.2468164990679327
 20
-0.4083676845117737
 30
0.0
 11
0.2441384199333072
 21
-0.4049019350434549
 31
0.0
  0
LINE
  5
BF8
330
4DA
100
AcDbEntity
  8
0
  6
Continuous
100
AcDbLine
 10
0.2494945782025297
 20
-0.4117546669467345
 30
0.0
 11
0.2468164990679327
 21
-0.4083676845117737
 31
0.0
  0
LINE
  5
BF9
330
4DA
100
AcDbEntity
  8
0
  6
Continuous
100
AcDbLine
 10
0.2522120408538342
 20
-0.4150628823483089
 30
0.0
 11
0.2494945782025297
 21
-0.4117546669467345
 31
0.0
  0
LINE
  5
BFA
330
4DA
100
AcDbEntity
  8
0
  6
Continuous
100
AcDbLine
 10
0.2549295035051102
 20
-0.4182923307165254
 30
0.0
 11
0.2522120408538342
 21
-0.4150628823483089
 31
0.0
  0
LINE
  5
BFB
330
4DA
100
AcDbEntity
  8
0
  6
Continuous
100
AcDbLine
 10
0.2576863496731221
 20
-0.4214430120513555
 30
0.0
 11
0.2549295035051102
 21
-0.4182923307165254
 31
0.0
  0
LINE
  5
BFC
330
4DA
100
AcDbEntity
  8
0
  6
Continuous
100
AcDbLine
 10
0.2604431958410771
 20
-0.4245149263528277
 30
0.0
 11
0.2576863496731221
 21
-0.4214430120513555
 31
0.0
  0
LINE
  5
BFD
330
4DA
100
AcDbEntity
  8
0
  6
Continuous
100
AcDbLine
 10
0.263239425525768
 20
-0.4275080736209134
 30
0.0
 11
0.2604431958410771
 21
-0.4245149263528277
 31
0.0
  0
LINE
  5
BFE
330
4DA
100
AcDbEntity
  8
0
  6
Continuous
100
AcDbLine
 10
0.2660356552104304
 20
-0.4304224538556696
 30
0.0
 11
0.263239425525768
 21
-0.4275080736209134
 31
0.0
  0
LINE
  5
BFF
330
4DA
100
AcDbEntity
  8
0
  6
Continuous
100
AcDbLine
 10
0.2688318848951212
 20
-0.43329745057369
 30
0.0
 11
0.2660356552104304
 21
-0.4304224538556696
 31
0.0
  0
LINE
  5
C00
330
4DA
100
AcDbEntity
  8
0
  6
Continuous
100
AcDbLine
 10
0.2716674980964626
 20
-0.4360542967416734
 30
0.0
 11
0.2688318848951212
 21
-0.43329745057369
 31
0.0
  0
LINE
  5
C01
330
4DA
100
AcDbEntity
  8
0
  6
Continuous
100
AcDbLine
 10
0.274463727781125
 20
-0.4387717593929779
 30
0.0
 11
0.2716674980964626
 21
-0.4360542967416734
 31
0.0
  0
LINE
  5
C02
330
4DA
100
AcDbEntity
  8
0
  6
Continuous
100
AcDbLine
 10
0.2772993409824664
 20
-0.441410455010896
 30
0.0
 11
0.274463727781125
 21
-0.4387717593929779
 31
0.0
  0
LINE
  5
C03
330
4DA
100
AcDbEntity
  8
0
  6
Continuous
100
AcDbLine
 10
0.2800955706671573
 20
-0.4439703835954561
 30
0.0
 11
0.2772993409824664
 21
-0.441410455010896
 31
0.0
  0
LINE
  5
C04
330
4DA
100
AcDbEntity
  8
0
  6
Continuous
100
AcDbLine
 10
0.2288576154593329
 20
-0.3824533305327407
 30
0.0
 11
0.2264158374248382
 21
-0.3784362118308024
 31
0.0
  0
LINE
  5
C05
330
4DA
100
AcDbEntity
  8
0
  6
Continuous
100
AcDbLine
 10
0.2312993934938277
 20
-0.3864310657179715
 30
0.0
 11
0.2288576154593329
 21
-0.3824533305327407
 31
0.0
  0
LINE
  5
C06
330
4DA
100
AcDbEntity
  8
0
  6
Continuous
100
AcDbLine
 10
0.2338199385617088
 20
-0.3902906503531369
 30
0.0
 11
0.2312993934938277
 21
-0.3864310657179715
 31
0.0
  0
LINE
  5
C07
330
4DA
100
AcDbEntity
  8
0
  6
Continuous
100
AcDbLine
 10
0.2363404836295615
 20
-0.3940714679549444
 30
0.0
 11
0.2338199385617088
 21
-0.3902906503531369
 31
0.0
  0
LINE
  5
C08
330
4DA
100
AcDbEntity
  8
0
  6
Continuous
100
AcDbLine
 10
0.2857667970698401
 20
-0.448893323181153
 30
0.0
 11
0.2829311838684987
 21
-0.4464515451466582
 31
0.0
  0
LINE
  5
C09
330
4DA
100
AcDbEntity
  8
0
  6
Continuous
100
AcDbLine
 10
0.3106965631317564
 20
-0.4677974111901904
 30
0.0
 11
0.3079791004804804
 21
-0.4659463859059656
 31
0.0
  0
LINE
  5
C0A
330
4DA
100
AcDbEntity
  8
0
  6
Continuous
100
AcDbLine
 10
0.2194449549714932
 20
-0.3658334864914536
 30
0.0
 11
0.2172000945204502
 21
-0.3614619161393762
 31
0.0
  0
LINE
  5
C0B
330
4DA
100
AcDbEntity
  8
0
  6
Continuous
100
AcDbLine
 10
0.2087720219497555
 20
-0.3430698138472508
 30
0.0
 11
0.2068422296321444
 21
-0.3382256412949403
 31
0.0
  0
LINE
  5
C0C
330
4DA
100
AcDbEntity
  8
0
  6
Continuous
100
AcDbLine
 10
0.2108199648173752
 20
-0.3477958358495243
 30
0.0
 11
0.2087720219497555
 21
-0.3430698138472508
 31
0.0
  0
LINE
  5
C0D
330
4DA
100
AcDbEntity
  8
0
  6
Continuous
100
AcDbLine
 10
0.2128679076850233
 20
-0.3524430908183831
 30
0.0
 11
0.2108199648173752
 21
-0.3477958358495243
 31
0.0
  0
LINE
  5
C0E
330
4DA
100
AcDbEntity
  8
0
  6
Continuous
100
AcDbLine
 10
0.2150340011027367
 20
-0.3569721952372333
 30
0.0
 11
0.2128679076850233
 21
-0.3524430908183831
 31
0.0
  0
LINE
  5
C0F
330
4DA
100
AcDbEntity
  8
0
  6
Continuous
100
AcDbLine
 10
0.2172000945204502
 20
-0.3614619161393762
 30
0.0
 11
0.2150340011027367
 21
-0.3569721952372333
 31
0.0
  0
LINE
  5
C10
330
4DA
100
AcDbEntity
  8
0
  6
Continuous
100
AcDbLine
 10
0.221729198939272
 20
-0.3701262898101731
 30
0.0
 11
0.2194449549714932
 21
-0.3658334864914536
 31
0.0
  0
LINE
  5
C11
330
4DA
100
AcDbEntity
  8
0
  6
Continuous
100
AcDbLine
 10
0.2240528264237014
 20
-0.3743403260955347
 30
0.0
 11
0.221729198939272
 21
-0.3701262898101731
 31
0.0
  0
LINE
  5
C12
330
4DA
100
AcDbEntity
  8
0
  6
Continuous
100
AcDbLine
 10
0.1935699845091392
 20
-0.2962821960248902
 30
0.0
 11
0.1922703284585339
 21
-0.2905715861055
 31
0.0
  0
LINE
  5
C13
330
4DA
100
AcDbEntity
  8
0
  6
Continuous
100
AcDbLine
 10
0.1949877911098099
 20
-0.3018352718775645
 30
0.0
 11
0.1935699845091392
 21
-0.2962821960248902
 31
0.0
  0
LINE
  5
C14
330
4DA
100
AcDbEntity
  8
0
  6
Continuous
100
AcDbLine
 10
0.196444981227188
 20
-0.3073489642135314
 30
0.0
 11
0.1949877911098099
 21
-0.3018352718775645
 31
0.0
  0
LINE
  5
C15
330
4DA
100
AcDbEntity
  8
0
  6
Continuous
100
AcDbLine
 10
0.198020321894603
 20
-0.3127051224827255
 30
0.0
 11
0.196444981227188
 21
-0.3073489642135314
 31
0.0
  0
LINE
  5
C16
330
4DA
100
AcDbEntity
  8
0
  6
Continuous
100
AcDbLine
 10
0.1996350460786971
 20
-0.3180218972352691
 30
0.0
 11
0.198020321894603
 21
-0.3127051224827255
 31
0.0
  0
LINE
  5
C17
330
4DA
100
AcDbEntity
  8
0
  6
Continuous
100
AcDbLine
 10
0.2013285372961775
 20
-0.3232205214377757
 30
0.0
 11
0.1996350460786971
 21
-0.3180218972352691
 31
0.0
  0
LINE
  5
C18
330
4DA
100
AcDbEntity
  8
0
  6
Continuous
100
AcDbLine
 10
0.2031007955470159
 20
-0.3283009950901885
 30
0.0
 11
0.2013285372961775
 21
-0.3232205214377757
 31
0.0
  0
LINE
  5
C19
330
4DA
100
AcDbEntity
  8
0
  6
Continuous
100
AcDbLine
 10
0.2049518208312406
 20
-0.3333027017092434
 30
0.0
 11
0.2031007955470159
 21
-0.3283009950901885
 31
0.0
  0
LINE
  5
C1A
330
4DA
100
AcDbEntity
  8
0
  6
Continuous
100
AcDbLine
 10
0.1922703284585339
 20
-0.2905715861055
 30
0.0
 11
0.1910100559245791
 21
-0.2848215926694024
 31
0.0
  0
LINE
  5
C1B
330
4DA
100
AcDbEntity
  8
0
  6
Continuous
100
AcDbLine
 10
0.2068422296321444
 20
-0.3382256412949403
 30
0.0
 11
0.2049518208312406
 21
-0.3333027017092434
 31
0.0
  0
LINE
  5
C1C
330
4DA
100
AcDbEntity
  8
0
  6
Continuous
100
AcDbLine
 10
0.2264158374248382
 20
-0.3784362118308024
 30
0.0
 11
0.2240528264237014
 21
-0.3743403260955347
 31
0.0
  0
LINE
  5
C1D
330
4DA
100
AcDbEntity
  8
0
  6
Continuous
100
AcDbLine
 10
0.0417465276865983
 20
-0.0123664242392465
 30
0.0
 11
0.0394622837188479
 21
-0.0114212198387804
 31
0.0
  0
LINE
  5
C1E
330
4DA
100
AcDbEntity
  8
0
  6
Continuous
100
AcDbLine
 10
0.032845852915699
 20
-0.0088612912542487
 30
0.0
 11
0.0307585265313719
 21
-0.008113004437206
 31
0.0
  0
LINE
  5
C1F
330
4DA
100
AcDbEntity
  8
0
  6
Continuous
100
AcDbLine
 10
0.0100821802714677
 20
-0.0019691758342901
 30
0.0
 11
0.0088219077375413
 21
-0.0016541077008014
 31
0.0
  0
LINE
  5
C20
330
4DA
100
AcDbEntity
  8
0
  6
Continuous
100
AcDbLine
 10
0.0114212198387804
 20
-0.0022842439677504
 30
0.0
 11
0.0100821802714677
 21
-0.0019691758342901
 31
0.0
  0
LINE
  5
C21
330
4DA
100
AcDbEntity
  8
0
  6
Continuous
100
AcDbLine
 10
0.0128784099561585
 20
-0.0026386956179181
 30
0.0
 11
0.0114212198387804
 21
-0.0022842439677504
 31
0.0
  0
LINE
  5
C22
330
4DA
100
AcDbEntity
  8
0
  6
Continuous
100
AcDbLine
 10
0.0143749835901872
 20
-0.0030325307847932
 30
0.0
 11
0.0128784099561585
 21
-0.0026386956179181
 31
0.0
  0
LINE
  5
C23
330
4DA
100
AcDbEntity
  8
0
  6
Continuous
100
AcDbLine
 10
0.0159503242576307
 20
-0.0034263659516398
 30
0.0
 11
0.0143749835901872
 21
-0.0030325307847932
 31
0.0
  0
LINE
  5
C24
330
4DA
100
AcDbEntity
  8
0
  6
Continuous
100
AcDbLine
 10
0.0175650484417247
 20
-0.0038989681518729
 30
0.0
 11
0.0159503242576307
 21
-0.0034263659516398
 31
0.0
  0
LINE
  5
C25
330
4DA
100
AcDbEntity
  8
0
  6
Continuous
100
AcDbLine
 10
0.0192979231758841
 20
-0.0043715703520775
 30
0.0
 11
0.0175650484417247
 21
-0.0038989681518729
 31
0.0
  0
LINE
  5
C26
330
4DA
100
AcDbEntity
  8
0
  6
Continuous
100
AcDbLine
 10
0.0210307979100435
 20
-0.0049229395856969
 30
0.0
 11
0.0192979231758841
 21
-0.0043715703520775
 31
0.0
  0
LINE
  5
C27
330
4DA
100
AcDbEntity
  8
0
  6
Continuous
100
AcDbLine
 10
0.0228818231942682
 20
-0.0054743088192879
 30
0.0
 11
0.0210307979100435
 21
-0.0049229395856969
 31
0.0
  0
LINE
  5
C28
330
4DA
100
AcDbEntity
  8
0
  6
Continuous
100
AcDbLine
 10
0.024772231995172
 20
-0.0060650615695863
 30
0.0
 11
0.0228818231942682
 21
-0.0054743088192879
 31
0.0
  0
LINE
  5
C29
330
4DA
100
AcDbEntity
  8
0
  6
Continuous
100
AcDbLine
 10
0.0267020243127547
 20
-0.0066951978365353
 30
0.0
 11
0.024772231995172
 21
-0.0060650615695863
 31
0.0
  0
LINE
  5
C2A
330
4DA
100
AcDbEntity
  8
0
  6
Continuous
100
AcDbLine
 10
0.0287105836636954
 20
-0.0073647176201916
 30
0.0
 11
0.0267020243127547
 21
-0.0066951978365353
 31
0.0
  0
LINE
  5
C2B
330
4DA
100
AcDbEntity
  8
0
  6
Continuous
100
AcDbLine
 10
0.0307585265313719
 20
-0.008113004437206
 30
0.0
 11
0.0287105836636954
 21
-0.0073647176201916
 31
0.0
  0
LINE
  5
C2C
330
4DA
100
AcDbEntity
  8
0
  6
Continuous
100
AcDbLine
 10
0.0001181505500369
 20
0.0
 30
0.0
 11
0.0
 21
0.0
 31
0.0
  0
LINE
  5
C2D
330
4DA
100
AcDbEntity
  8
0
  6
Continuous
100
AcDbLine
 10
0.0003150681334603
 20
-0.0000393835167074
 30
0.0
 11
0.0001181505500369
 21
0.0
 31
0.0
  0
LINE
  5
C2E
330
4DA
100
AcDbEntity
  8
0
  6
Continuous
100
AcDbLine
 10
0.000630136266949
 20
-0.000078767033358
 30
0.0
 11
0.0003150681334603
 21
-0.0000393835167074
 31
0.0
  0
LINE
  5
C2F
330
4DA
100
AcDbEntity
  8
0
  6
Continuous
100
AcDbLine
 10
0.001023971433824
 20
-0.0001575340667443
 30
0.0
 11
0.000630136266949
 21
-0.000078767033358
 31
0.0
  0
LINE
  5
C30
330
4DA
100
AcDbEntity
  8
0
  6
Continuous
100
AcDbLine
 10
0.0015359571507361
 20
-0.0002363011001307
 30
0.0
 11
0.001023971433824
 21
-0.0001575340667443
 31
0.0
  0
LINE
  5
C31
330
4DA
100
AcDbEntity
  8
0
  6
Continuous
100
AcDbLine
 10
0.0021267099010061
 20
-0.0003150681334887
 30
0.0
 11
0.0015359571507361
 21
-0.0002363011001307
 31
0.0
  0
LINE
  5
C32
330
4DA
100
AcDbEntity
  8
0
  6
Continuous
100
AcDbLine
 10
0.0028356132013414
 20
-0.0004332186835541
 30
0.0
 11
0.0021267099010061
 21
-0.0003150681334887
 31
0.0
  0
LINE
  5
C33
330
4DA
100
AcDbEntity
  8
0
  6
Continuous
100
AcDbLine
 10
0.0036232835350631
 20
-0.0005907527502984
 30
0.0
 11
0.0028356132013414
 21
-0.0004332186835541
 31
0.0
  0
LINE
  5
C34
330
4DA
100
AcDbEntity
  8
0
  6
Continuous
100
AcDbLine
 10
0.0044897209021144
 20
-0.0007482868170428
 30
0.0
 11
0.0036232835350631
 21
-0.0005907527502984
 31
0.0
  0
LINE
  5
C35
330
4DA
100
AcDbEntity
  8
0
  6
Continuous
100
AcDbLine
 10
0.0054349253025805
 20
-0.0009452044004661
 30
0.0
 11
0.0044897209021144
 21
-0.0007482868170428
 31
0.0
  0
LINE
  5
C36
330
4DA
100
AcDbEntity
  8
0
  6
Continuous
100
AcDbLine
 10
0.0064982802531119
 20
-0.0011421219838894
 30
0.0
 11
0.0054349253025805
 21
-0.0009452044004661
 31
0.0
  0
LINE
  5
C37
330
4DA
100
AcDbEntity
  8
0
  6
Continuous
100
AcDbLine
 10
0.007601018720294
 20
-0.0014178066006707
 30
0.0
 11
0.0064982802531119
 21
-0.0011421219838894
 31
0.0
  0
LINE
  5
C38
330
4DA
100
AcDbEntity
  8
0
  6
Continuous
100
AcDbLine
 10
0.0088219077375413
 20
-0.0016541077008014
 30
0.0
 11
0.007601018720294
 21
-0.0014178066006707
 31
0.0
  0
LINE
  5
C39
330
4DA
100
AcDbEntity
  8
0
  6
Continuous
100
AcDbLine
 10
0.035011946333384
 20
-0.009688345104621
 30
0.0
 11
0.032845852915699
 21
-0.0088612912542487
 31
0.0
  0
LINE
  5
C3A
330
4DA
100
AcDbEntity
  8
0
  6
Continuous
100
AcDbLine
 10
0.0372174232677765
 20
-0.0105153989550218
 30
0.0
 11
0.035011946333384
 21
-0.009688345104621
 31
0.0
  0
LINE
  5
C3B
330
4DA
100
AcDbEntity
  8
0
  6
Continuous
100
AcDbLine
 10
0.0394622837188479
 20
-0.0114212198387804
 30
0.0
 11
0.0372174232677765
 21
-0.0105153989550218
 31
0.0
  0
LINE
  5
C3C
330
4DA
100
AcDbEntity
  8
0
  6
Continuous
100
AcDbLine
 10
0.0987344763304918
 20
-0.0473783705726305
 30
0.0
 11
0.0960170136791874
 21
-0.0450941266048801
 31
0.0
  0
LINE
  5
C3D
330
4DA
100
AcDbEntity
  8
0
  6
Continuous
100
AcDbLine
 10
0.1861264998555896
 20
-0.2544175177882266
 30
0.0
 11
0.1854175965552542
 21
-0.2479980045685011
 31
0.0
  0
LINE
  5
C3E
330
4DA
100
AcDbEntity
  8
0
  6
Continuous
100
AcDbLine
 10
0.1837241053377738
 20
-0.2284243967758073
 30
0.0
 11
0.1830545855541175
 21
-0.2220048835560817
 31
0.0
  0
LINE
  5
C3F
330
4DA
100
AcDbEntity
  8
0
  6
Continuous
100
AcDbLine
 10
0.1842754745713648
 20
-0.2349226770289192
 30
0.0
 11
0.1837241053377738
 21
-0.2284243967758073
 31
0.0
  0
LINE
  5
C40
330
4DA
100
AcDbEntity
  8
0
  6
Continuous
100
AcDbLine
 10
0.1848268438049558
 20
-0.2415391078320681
 30
0.0
 11
0.1842754745713648
 21
-0.2349226770289192
 31
0.0
  0
LINE
  5
C41
330
4DA
100
AcDbEntity
  8
0
  6
Continuous
100
AcDbLine
 10
0.1854175965552542
 20
-0.2479980045685011
 30
0.0
 11
0.1848268438049558
 21
-0.2415391078320681
 31
0.0
  0
LINE
  5
C42
330
4DA
100
AcDbEntity
  8
0
  6
Continuous
100
AcDbLine
 10
0.1669861107464499
 20
-0.1492635282379808
 30
0.0
 11
0.165253236012262
 21
-0.1444193556856703
 31
0.0
  0
LINE
  5
C43
330
4DA
100
AcDbEntity
  8
0
  6
Continuous
100
AcDbLine
 10
0.1686796019639019
 20
-0.1541864678236777
 30
0.0
 11
0.1669861107464499
 21
-0.1492635282379808
 31
0.0
  0
LINE
  5
C44
330
4DA
100
AcDbEntity
  8
0
  6
Continuous
100
AcDbLine
 10
0.1702943261480243
 20
-0.1592275579594116
 30
0.0
 11
0.1686796019639019
 21
-0.1541864678236777
 31
0.0
  0
LINE
  5
C45
330
4DA
100
AcDbEntity
  8
0
  6
Continuous
100
AcDbLine
 10
0.1718302832987604
 20
-0.1643867986452108
 30
0.0
 11
0.1702943261480243
 21
-0.1592275579594116
 31
0.0
  0
LINE
  5
C46
330
4DA
100
AcDbEntity
  8
0
  6
Continuous
100
AcDbLine
 10
0.173326856932789
 20
-0.1696248063643679
 30
0.0
 11
0.1718302832987604
 21
-0.1643867986452108
 31
0.0
  0
LINE
  5
C47
330
4DA
100
AcDbEntity
  8
0
  6
Continuous
100
AcDbLine
 10
0.1747052800167808
 20
-0.1750203481502979
 30
0.0
 11
0.173326856932789
 21
-0.1696248063643679
 31
0.0
  0
LINE
  5
C48
330
4DA
100
AcDbEntity
  8
0
  6
Continuous
100
AcDbLine
 10
0.1760443195840935
 20
-0.1804946569695858
 30
0.0
 11
0.1747052800167808
 21
-0.1750203481502979
 31
0.0
  0
LINE
  5
C49
330
4DA
100
AcDbEntity
  8
0
  6
Continuous
100
AcDbLine
 10
0.1773045921180483
 20
-0.1860477328222316
 30
0.0
 11
0.1760443195840935
 21
-0.1804946569695858
 31
0.0
  0
LINE
  5
C4A
330
4DA
100
AcDbEntity
  8
0
  6
Continuous
100
AcDbLine
 10
0.1784467141019093
 20
-0.1917583427416218
 30
0.0
 11
0.1773045921180483
 21
-0.1860477328222316
 31
0.0
  0
LINE
  5
C4B
330
4DA
100
AcDbEntity
  8
0
  6
Continuous
100
AcDbLine
 10
0.1795494525691197
 20
-0.1975871032110774
 30
0.0
 11
0.1784467141019093
 21
-0.1917583427416218
 31
0.0
  0
LINE
  5
C4C
330
4DA
100
AcDbEntity
  8
0
  6
Continuous
100
AcDbLine
 10
0.1805734240029437
 20
-0.2035340142305699
 30
0.0
 11
0.1795494525691197
 21
-0.1975871032110774
 31
0.0
  0
LINE
  5
C4D
330
4DA
100
AcDbEntity
  8
0
  6
Continuous
100
AcDbLine
 10
0.1814792448867024
 20
-0.2095596922834488
 30
0.0
 11
0.1805734240029437
 21
-0.2035340142305699
 31
0.0
  0
LINE
  5
C4E
330
4DA
100
AcDbEntity
  8
0
  6
Continuous
100
AcDbLine
 10
0.1823062987371031
 20
-0.2157429044030721
 30
0.0
 11
0.1814792448867024
 21
-0.2095596922834488
 31
0.0
  0
LINE
  5
C4F
330
4DA
100
AcDbEntity
  8
0
  6
Continuous
100
AcDbLine
 10
0.1830545855541175
 20
-0.2220048835560817
 30
0.0
 11
0.1823062987371031
 21
-0.2157429044030721
 31
0.0
  0
LINE
  5
C50
330
4DA
100
AcDbEntity
  8
0
  6
Continuous
100
AcDbLine
 10
0.1869141701892829
 20
-0.2606794969412078
 30
0.0
 11
0.1861264998555896
 21
-0.2544175177882266
 31
0.0
  0
LINE
  5
C51
330
4DA
100
AcDbEntity
  8
0
  6
Continuous
100
AcDbLine
 10
0.18781999107307
 20
-0.2668627090608311
 30
0.0
 11
0.1869141701892829
 21
-0.2606794969412078
 31
0.0
  0
LINE
  5
C52
330
4DA
100
AcDbEntity
  8
0
  6
Continuous
100
AcDbLine
 10
0.1888045789902151
 20
-0.2729671541470964
 30
0.0
 11
0.18781999107307
 21
-0.2668627090608311
 31
0.0
  0
LINE
  5
C53
330
4DA
100
AcDbEntity
  8
0
  6
Continuous
100
AcDbLine
 10
0.1898679339407181
 20
-0.2789140651665889
 30
0.0
 11
0.1888045789902151
 21
-0.2729671541470964
 31
0.0
  0
LINE
  5
C54
330
4DA
100
AcDbEntity
  8
0
  6
Continuous
100
AcDbLine
 10
0.1514296216556659
 20
-0.1134639115708751
 30
0.0
 11
0.1492635282379808
 21
-0.1094467928689653
 31
0.0
  0
LINE
  5
C55
330
4DA
100
AcDbEntity
  8
0
  6
Continuous
100
AcDbLine
 10
0.1492635282379808
 20
-0.1094467928689653
 30
0.0
 11
0.147018667786881
 21
-0.1055084412004135
 31
0.0
  0
LINE
  5
C56
330
4DA
100
AcDbEntity
  8
0
  6
Continuous
100
AcDbLine
 10
0.1068474807677262
 20
-0.0545855541260778
 30
0.0
 11
0.1041300181164217
 21
-0.0521043925749041
 31
0.0
  0
LINE
  5
C57
330
4DA
100
AcDbEntity
  8
0
  6
Continuous
100
AcDbLine
 10
0.1014519389817963
 20
-0.0497019980570883
 30
0.0
 11
0.0987344763304918
 21
-0.0473783705726305
 31
0.0
  0
LINE
  5
C58
330
4DA
100
AcDbEntity
  8
0
  6
Continuous
100
AcDbLine
 10
0.1041300181164217
 20
-0.0521043925749041
 30
0.0
 11
0.1014519389817963
 21
-0.0497019980570883
 31
0.0
  0
LINE
  5
C59
330
4DA
100
AcDbEntity
  8
0
  6
Continuous
100
AcDbLine
 10
0.120080342374024
 20
-0.0682122508992507
 30
0.0
 11
0.1174810302727849
 21
-0.0653372541812303
 31
0.0
  0
LINE
  5
C5A
330
4DA
100
AcDbEntity
  8
0
  6
Continuous
100
AcDbLine
 10
0.1239311751166383
 20
-0.072588197197689
 30
0.0
 11
0.120080342374024
 21
-0.0682122508992507
 31
0.0
  0
LINE
  5
C5B
330
4DA
100
AcDbEntity
  8
0
  6
Continuous
100
AcDbLine
 10
0.1277995116443833
 20
-0.0773492267703091
 30
0.0
 11
0.1239311751166383
 21
-0.072588197197689
 31
0.0
  0
LINE
  5
C5C
330
4DA
100
AcDbEntity
  8
0
  6
Continuous
100
AcDbLine
 10
0.1303200567122644
 20
-0.0805392916218182
 30
0.0
 11
0.1277995116443833
 21
-0.0773492267703091
 31
0.0
  0
LINE
  5
C5D
330
4DA
100
AcDbEntity
  8
0
  6
Continuous
100
AcDbLine
 10
0.1328012182634382
 20
-0.0838475070233926
 30
0.0
 11
0.1303200567122644
 21
-0.0805392916218182
 31
0.0
  0
LINE
  5
C5E
330
4DA
100
AcDbEntity
  8
0
  6
Continuous
100
AcDbLine
 10
0.1352823798146119
 20
-0.0872344894583535
 30
0.0
 11
0.1328012182634382
 21
-0.0838475070233926
 31
0.0
  0
LINE
  5
C5F
330
4DA
100
AcDbEntity
  8
0
  6
Continuous
100
AcDbLine
 10
0.1376847743324561
 20
-0.0907002389266722
 30
0.0
 11
0.1352823798146119
 21
-0.0872344894583535
 31
0.0
  0
LINE
  5
C60
330
4DA
100
AcDbEntity
  8
0
  6
Continuous
100
AcDbLine
 10
0.1400871688502434
 20
-0.0942841389450564
 30
0.0
 11
0.1376847743324561
 21
-0.0907002389266722
 31
0.0
  0
LINE
  5
C61
330
4DA
100
AcDbEntity
  8
0
  6
Continuous
100
AcDbLine
 10
0.1424501798513802
 20
-0.0979074224801195
 30
0.0
 11
0.1400871688502434
 21
-0.0942841389450564
 31
0.0
  0
LINE
  5
C62
330
4DA
100
AcDbEntity
  8
0
  6
Continuous
100
AcDbLine
 10
0.1447344238191306
 20
-0.101688240081927
 30
0.0
 11
0.1424501798513802
 21
-0.0979074224801195
 31
0.0
  0
LINE
  5
C63
330
4DA
100
AcDbEntity
  8
0
  6
Continuous
100
AcDbLine
 10
0.1095255599023233
 20
-0.0571454827106379
 30
0.0
 11
0.1068474807677262
 21
-0.0545855541260778
 31
0.0
  0
LINE
  5
C64
330
4DA
100
AcDbEntity
  8
0
  6
Continuous
100
AcDbLine
 10
0.1121642555202413
 20
-0.059784178328556
 30
0.0
 11
0.1095255599023233
 21
-0.0571454827106379
 31
0.0
  0
LINE
  5
C65
330
4DA
100
AcDbEntity
  8
0
  6
Continuous
100
AcDbLine
 10
0.1148423346548668
 20
-0.0625016409798605
 30
0.0
 11
0.1121642555202413
 21
-0.059784178328556
 31
0.0
  0
LINE
  5
C66
330
4DA
100
AcDbEntity
  8
0
  6
Continuous
100
AcDbLine
 10
0.1174810302727849
 20
-0.0653372541812303
 30
0.0
 11
0.1148423346548668
 21
-0.0625016409798605
 31
0.0
  0
LINE
  5
C67
330
4DA
100
AcDbEntity
  8
0
  6
Continuous
100
AcDbLine
 10
0.147018667786881
 20
-0.1055084412004135
 30
0.0
 11
0.1447344238191306
 21
-0.101688240081927
 31
0.0
  0
LINE
  5
C68
330
4DA
100
AcDbEntity
  8
0
  6
Continuous
100
AcDbLine
 10
0.1615905689605199
 20
-0.135085462231217
 30
0.0
 11
0.1596607766429372
 21
-0.1305563578123952
 31
0.0
  0
LINE
  5
C69
330
4DA
100
AcDbEntity
  8
0
  6
Continuous
100
AcDbLine
 10
0.1634415942447447
 20
-0.1396933336834252
 30
0.0
 11
0.1615905689605199
 21
-0.135085462231217
 31
0.0
  0
LINE
  5
C6A
330
4DA
100
AcDbEntity
  8
0
  6
Continuous
100
AcDbLine
 10
0.1535563315567003
 20
-0.1175991808228503
 30
0.0
 11
0.1514296216556659
 21
-0.1134639115708751
 31
0.0
  0
LINE
  5
C6B
330
4DA
100
AcDbEntity
  8
0
  6
Continuous
100
AcDbLine
 10
0.1556436579410274
 20
-0.1218132171082118
 30
0.0
 11
0.1535563315567003
 21
-0.1175991808228503
 31
0.0
  0
LINE
  5
C6C
330
4DA
100
AcDbEntity
  8
0
  6
Continuous
100
AcDbLine
 10
0.1576916008086755
 20
-0.1261454039436103
 30
0.0
 11
0.1556436579410274
 21
-0.1218132171082118
 31
0.0
  0
LINE
  5
C6D
330
4DA
100
AcDbEntity
  8
0
  6
Continuous
100
AcDbLine
 10
0.1596607766429372
 20
-0.1305563578123952
 30
0.0
 11
0.1576916008086755
 21
-0.1261454039436103
 31
0.0
  0
LINE
  5
C6E
330
4DA
100
AcDbEntity
  8
0
  6
Continuous
100
AcDbLine
 10
0.165253236012262
 20
-0.1444193556856703
 30
0.0
 11
0.1634415942447447
 21
-0.1396933336834252
 31
0.0
  0
LINE
  5
C6F
330
4DA
100
AcDbEntity
  8
0
  6
Continuous
100
AcDbLine
 10
0.0879040092419814
 20
-0.0387139969018335
 30
0.0
 11
0.0851865465907054
 21
-0.0367448210675718
 31
0.0
  0
LINE
  5
C70
330
4DA
100
AcDbEntity
  8
0
  6
Continuous
100
AcDbLine
 10
0.0906214718932859
 20
-0.0407619397694816
 30
0.0
 11
0.0879040092419814
 21
-0.0387139969018335
 31
0.0
  0
LINE
  5
C71
330
4DA
100
AcDbEntity
  8
0
  6
Continuous
100
AcDbLine
 10
0.0933389345445903
 20
-0.0428886496704877
 30
0.0
 11
0.0906214718932859
 21
-0.0407619397694816
 31
0.0
  0
LINE
  5
C72
330
4DA
100
AcDbEntity
  8
0
  6
Continuous
100
AcDbLine
 10
0.0960170136791874
 20
-0.0450941266048801
 30
0.0
 11
0.0933389345445903
 21
-0.0428886496704877
 31
0.0
  0
LINE
  5
C73
330
4DA
100
AcDbEntity
  8
0
  6
Continuous
100
AcDbLine
 10
0.0771129256701784
 20
-0.0311917452148975
 30
0.0
 11
0.0744348465355529
 21
-0.0294588704807666
 31
0.0
  0
LINE
  5
C74
330
4DA
100
AcDbEntity
  8
0
  6
Continuous
100
AcDbLine
 10
0.0797910048047754
 20
-0.0329640034657359
 30
0.0
 11
0.0771129256701784
 21
-0.0311917452148975
 31
0.0
  0
LINE
  5
C75
330
4DA
100
AcDbEntity
  8
0
  6
Continuous
100
AcDbLine
 10
0.0825084674560799
 20
-0.0348150287499607
 30
0.0
 11
0.0797910048047754
 21
-0.0329640034657359
 31
0.0
  0
LINE
  5
C76
330
4DA
100
AcDbEntity
  8
0
  6
Continuous
100
AcDbLine
 10
0.0851865465907054
 20
-0.0367448210675718
 30
0.0
 11
0.0825084674560799
 21
-0.0348150287499607
 31
0.0
  0
LINE
  5
C77
330
4DA
100
AcDbEntity
  8
0
  6
Continuous
100
AcDbLine
 10
0.0440701551710561
 20
-0.0133510121563916
 30
0.0
 11
0.0417465276865983
 21
-0.0123664242392465
 31
0.0
  0
LINE
  5
C78
330
4DA
100
AcDbEntity
  8
0
  6
Continuous
100
AcDbLine
 10
0.0464331661721644
 20
-0.0144143671068946
 30
0.0
 11
0.0440701551710561
 21
-0.0133510121563916
 31
0.0
  0
LINE
  5
C79
330
4DA
100
AcDbEntity
  8
0
  6
Continuous
100
AcDbLine
 10
0.0488355606900086
 20
-0.0155171055740766
 30
0.0
 11
0.0464331661721644
 21
-0.0144143671068946
 31
0.0
  0
LINE
  5
C7A
330
4DA
100
AcDbEntity
  8
0
  6
Continuous
100
AcDbLine
 10
0.0512773387245034
 20
-0.016659227557966
 30
0.0
 11
0.0488355606900086
 21
-0.0155171055740766
 31
0.0
  0
LINE
  5
C7B
330
4DA
100
AcDbEntity
  8
0
  6
Continuous
100
AcDbLine
 10
0.0537585002756771
 20
-0.0178407330585344
 30
0.0
 11
0.0512773387245034
 21
-0.016659227557966
 31
0.0
  0
LINE
  5
C7C
330
4DA
100
AcDbEntity
  8
0
  6
Continuous
100
AcDbLine
 10
0.0562396618268508
 20
-0.0191010055924608
 30
0.0
 11
0.0537585002756771
 21
-0.0178407330585344
 31
0.0
  0
LINE
  5
C7D
330
4DA
100
AcDbEntity
  8
0
  6
Continuous
100
AcDbLine
 10
0.0587995904114109
 20
-0.0204006616430945
 30
0.0
 11
0.0562396618268508
 21
-0.0191010055924608
 31
0.0
  0
LINE
  5
C7E
330
4DA
100
AcDbEntity
  8
0
  6
Continuous
100
AcDbLine
 10
0.061359518995971
 20
-0.0217790847270862
 30
0.0
 11
0.0587995904114109
 21
-0.0204006616430945
 31
0.0
  0
LINE
  5
C7F
330
4DA
100
AcDbEntity
  8
0
  6
Continuous
100
AcDbLine
 10
0.0639194475805312
 20
-0.0231968913277569
 30
0.0
 11
0.061359518995971
 21
-0.0217790847270862
 31
0.0
  0
LINE
  5
C80
330
4DA
100
AcDbEntity
  8
0
  6
Continuous
100
AcDbLine
 10
0.0665187596817702
 20
-0.024654081445135
 30
0.0
 11
0.0639194475805312
 21
-0.0231968913277569
 31
0.0
  0
LINE
  5
C81
330
4DA
100
AcDbEntity
  8
0
  6
Continuous
100
AcDbLine
 10
0.0691574552997167
 20
-0.0261900385958427
 30
0.0
 11
0.0665187596817702
 21
-0.024654081445135
 31
0.0
  0
LINE
  5
C82
330
4DA
100
AcDbEntity
  8
0
  6
Continuous
100
AcDbLine
 10
0.0717961509176348
 20
-0.0278047627799651
 30
0.0
 11
0.0691574552997167
 21
-0.0261900385958427
 31
0.0
  0
LINE
  5
C83
330
4DA
100
AcDbEntity
  8
0
  6
Continuous
100
AcDbLine
 10
0.0744348465355529
 20
-0.0294588704807666
 30
0.0
 11
0.0717961509176348
 21
-0.0278047627799651
 31
0.0
  0
LINE
  5
C84
330
4DA
100
AcDbEntity
  8
0
  6
Continuous
100
AcDbLine
 10
0.376270118413089
 20
-0.680389634258404
 30
0.0
 11
0.376270118413089
 21
-0.5000131278388836
 31
0.0
  0
LINE
  5
C85
330
4DA
100
AcDbEntity
  8
0
  6
Continuous
100
AcDbLine
 10
0.376270118413089
 20
-0.6423845406569058
 30
0.0
 11
0.376270118413089
 21
-0.6400609131724764
 31
0.0
  0
LINE
  5
C86
330
4DA
100
AcDbEntity
  8
0
  6
Continuous
100
AcDbLine
 10
0.376270118413089
 20
-0.6446687846246846
 30
0.0
 11
0.376270118413089
 21
-0.6423845406569058
 31
0.0
  0
LINE
  5
C87
330
4DA
100
AcDbEntity
  8
0
  6
Continuous
100
AcDbLine
 10
0.376270118413089
 20
-0.6468742615590771
 30
0.0
 11
0.376270118413089
 21
-0.6446687846246846
 31
0.0
  0
LINE
  5
C88
330
4DA
100
AcDbEntity
  8
0
  6
Continuous
100
AcDbLine
 10
0.376270118413089
 20
-0.6490797384934695
 30
0.0
 11
0.376270118413089
 21
-0.6468742615590771
 31
0.0
  0
LINE
  5
C89
330
4DA
100
AcDbEntity
  8
0
  6
Continuous
100
AcDbLine
 10
0.376270118413089
 20
-0.6512064483944755
 30
0.0
 11
0.376270118413089
 21
-0.6490797384934695
 31
0.0
  0
LINE
  5
C8A
330
4DA
100
AcDbEntity
  8
0
  6
Continuous
100
AcDbLine
 10
0.376270118413089
 20
-0.6532937747788026
 30
0.0
 11
0.376270118413089
 21
-0.6512064483944755
 31
0.0
  0
LINE
  5
C8B
330
4DA
100
AcDbEntity
  8
0
  6
Continuous
100
AcDbLine
 10
0.3550817864363296
 20
-0.4921758080184873
 30
0.0
 11
0.3531913776353974
 21
-0.4913487541680866
 31
0.0
  0
LINE
  5
C8C
330
4DA
100
AcDbEntity
  8
0
  6
Continuous
100
AcDbLine
 10
0.3471656995825185
 20
-0.4885919080001031
 30
0.0
 11
0.3450389896815125
 21
-0.4875679365662791
 31
0.0
  0
LINE
  5
C8D
330
4DA
100
AcDbEntity
  8
0
  6
Continuous
100
AcDbLine
 10
0.342872896263799
 20
-0.4865045816157761
 30
0.0
 11
0.340667419329435
 21
-0.4854018431485656
 31
0.0
  0
LINE
  5
C8E
330
4DA
100
AcDbEntity
  8
0
  6
Continuous
100
AcDbLine
 10
0.3450389896815125
 20
-0.4875679365662791
 30
0.0
 11
0.342872896263799
 21
-0.4865045816157761
 31
0.0
  0
LINE
  5
C8F
330
4DA
100
AcDbEntity
  8
0
  6
Continuous
100
AcDbLine
 10
0.3492530259668456
 20
-0.4895764959172482
 30
0.0
 11
0.3471656995825185
 21
-0.4885919080001031
 31
0.0
  0
LINE
  5
C90
330
4DA
100
AcDbEntity
  8
0
  6
Continuous
100
AcDbLine
 10
0.3512222018011357
 20
-0.4904823168010069
 30
0.0
 11
0.3492530259668456
 21
-0.4895764959172482
 31
0.0
  0
LINE
  5
C91
330
4DA
100
AcDbEntity
  8
0
  6
Continuous
100
AcDbLine
 10
0.3531913776353974
 20
-0.4913487541680866
 30
0.0
 11
0.3512222018011357
 21
-0.4904823168010069
 31
0.0
  0
LINE
  5
C92
330
4DA
100
AcDbEntity
  8
0
  6
Continuous
100
AcDbLine
 10
0.3568934282038469
 20
-0.4929240948355016
 30
0.0
 11
0.3550817864363296
 21
-0.4921758080184873
 31
0.0
  0
LINE
  5
C93
330
4DA
100
AcDbEntity
  8
0
  6
Continuous
100
AcDbLine
 10
0.3586263029380063
 20
-0.4936723816525444
 30
0.0
 11
0.3568934282038469
 21
-0.4929240948355016
 31
0.0
  0
LINE
  5
C94
330
4DA
100
AcDbEntity
  8
0
  6
Continuous
100
AcDbLine
 10
0.3603197941554868
 20
-0.4943419014362008
 30
0.0
 11
0.3586263029380063
 21
-0.4936723816525444
 31
0.0
  0
LINE
  5
C95
330
4DA
100
AcDbEntity
  8
0
  6
Continuous
100
AcDbLine
 10
0.3619345183395808
 20
-0.4950114212198287
 30
0.0
 11
0.3603197941554868
 21
-0.4943419014362008
 31
0.0
  0
LINE
  5
C96
330
4DA
100
AcDbEntity
  8
0
  6
Continuous
100
AcDbLine
 10
0.3634704754903169
 20
-0.4956021739701271
 30
0.0
 11
0.3619345183395808
 21
-0.4950114212198287
 31
0.0
  0
LINE
  5
C97
330
4DA
100
AcDbEntity
  8
0
  6
Continuous
100
AcDbLine
 10
0.3649276656076665
 20
-0.4961535432037181
 30
0.0
 11
0.3634704754903169
 21
-0.4956021739701271
 31
0.0
  0
LINE
  5
C98
330
4DA
100
AcDbEntity
  8
0
  6
Continuous
100
AcDbLine
 10
0.3663060886916583
 20
-0.4966655289206301
 30
0.0
 11
0.3649276656076665
 21
-0.4961535432037181
 31
0.0
  0
LINE
  5
C99
330
4DA
100
AcDbEntity
  8
0
  6
Continuous
100
AcDbLine
 10
0.367605744742292
 20
-0.4971381311208632
 30
0.0
 11
0.3663060886916583
 21
-0.4966655289206301
 31
0.0
  0
LINE
  5
C9A
330
4DA
100
AcDbEntity
  8
0
  6
Continuous
100
AcDbLine
 10
0.3688266337595394
 20
-0.4975713498043888
 30
0.0
 11
0.367605744742292
 21
-0.4971381311208632
 31
0.0
  0
LINE
  5
C9B
330
4DA
100
AcDbEntity
  8
0
  6
Continuous
100
AcDbLine
 10
0.3699687557434288
 20
-0.4980045684879429
 30
0.0
 11
0.3688266337595394
 21
-0.4975713498043888
 31
0.0
  0
LINE
  5
C9C
330
4DA
100
AcDbEntity
  8
0
  6
Continuous
100
AcDbLine
 10
0.3709927271772528
 20
-0.4983590201381105
 30
0.0
 11
0.3699687557434288
 21
-0.4980045684879429
 31
0.0
  0
LINE
  5
C9D
330
4DA
100
AcDbEntity
  8
0
  6
Continuous
100
AcDbLine
 10
0.3719773150943979
 20
-0.4986740882715992
 30
0.0
 11
0.3709927271772528
 21
-0.4983590201381105
 31
0.0
  0
LINE
  5
C9E
330
4DA
100
AcDbEntity
  8
0
  6
Continuous
100
AcDbLine
 10
0.3728437524614776
 20
-0.4989497728883805
 30
0.0
 11
0.3719773150943979
 21
-0.4986740882715992
 31
0.0
  0
LINE
  5
C9F
330
4DA
100
AcDbEntity
  8
0
  6
Continuous
100
AcDbLine
 10
0.3735920392784919
 20
-0.4991860739885113
 30
0.0
 11
0.3728437524614776
 21
-0.4989497728883805
 31
0.0
  0
LINE
  5
CA0
330
4DA
100
AcDbEntity
  8
0
  6
Continuous
100
AcDbLine
 10
0.3743009425788273
 20
-0.4994223750886136
 30
0.0
 11
0.3735920392784919
 21
-0.4991860739885113
 31
0.0
  0
LINE
  5
CA1
330
4DA
100
AcDbEntity
  8
0
  6
Continuous
100
AcDbLine
 10
0.3748916953290973
 20
-0.4995799091553579
 30
0.0
 11
0.3743009425788273
 21
-0.4994223750886136
 31
0.0
  0
LINE
  5
CA2
330
4DA
100
AcDbEntity
  8
0
  6
Continuous
100
AcDbLine
 10
0.3753642975293303
 20
-0.4997374432221023
 30
0.0
 11
0.3748916953290973
 21
-0.4995799091553579
 31
0.0
  0
LINE
  5
CA3
330
4DA
100
AcDbEntity
  8
0
  6
Continuous
100
AcDbLine
 10
0.3757581326962054
 20
-0.4998555937721676
 30
0.0
 11
0.3753642975293303
 21
-0.4997374432221023
 31
0.0
  0
LINE
  5
CA4
330
4DA
100
AcDbEntity
  8
0
  6
Continuous
100
AcDbLine
 10
0.3760338173129867
 20
-0.4999343608055256
 30
0.0
 11
0.3757581326962054
 21
-0.4998555937721676
 31
0.0
  0
LINE
  5
CA5
330
4DA
100
AcDbEntity
  8
0
  6
Continuous
100
AcDbLine
 10
0.376191351379731
 20
-0.499973744322233
 30
0.0
 11
0.3760338173129867
 21
-0.4999343608055256
 31
0.0
  0
LINE
  5
CA6
330
4DA
100
AcDbEntity
  8
0
  6
Continuous
100
AcDbLine
 10
0.376270118413089
 20
-0.5000131278388836
 30
0.0
 11
0.376191351379731
 21
-0.499973744322233
 31
0.0
  0
ENDBLK
  5
4DC
330
4DA
100
AcDbEntity
  8
0
100
AcDbBlockEnd
  0
BLOCK
  5
6C4
330
6C3
100
AcDbEntity
  8
0
100
AcDbBlockBegin
  2
wowc002front
 70
     0
 10
0.0
 20
0.0
 30
0.0
  3
wowc002front
  1

  0
LINE
  5
CA8
330
6C3
100
AcDbEntity
  8
0
  6
Continuous
100
AcDbLine
 10
0.0
 20
0.0
 30
0.0
 11
12.0
 21
0.0
 31
0.0
  0
LINE
  5
CA9
330
6C3
100
AcDbEntity
  8
0
  6
Continuous
100
AcDbLine
 10
-0.0000000000000004
 20
-0.5000131278388836
 30
0.0
 11
11.99999999999999
 21
-0.5000131278388836
 31
0.0
  0
LINE
  5
CAA
330
6C3
100
AcDbEntity
  8
0
  6
Continuous
100
AcDbLine
 10
-0.0000000000000004
 20
-0.680389634258404
 30
0.0
 11
11.99999999999999
 21
-0.680389634258404
 31
0.0
  0
LINE
  5
CAB
330
6C3
100
AcDbEntity
  8
0
  6
Continuous
100
AcDbLine
 10
-0.0000000000000004
 20
-1.051539895502401
 30
0.0
 11
11.99999999999999
 21
-1.051539895502401
 31
0.0
  0
LINE
  5
CAC
330
6C3
100
AcDbEntity
  8
0
  6
Continuous
100
AcDbLine
 10
-0.0000000000000004
 20
-1.242234883293519
 30
0.0
 11
11.99999999999999
 21
-1.242234883293519
 31
0.0
  0
LINE
  5
CAD
330
6C3
100
AcDbEntity
  8
0
  6
Continuous
100
AcDbLine
 10
0.0
 20
-2.247420379657114
 30
0.0
 11
12.0
 21
-2.247420379657115
 31
0.0
  0
LINE
  5
CAE
330
6C3
100
AcDbEntity
  8
0
  6
Continuous
100
AcDbLine
 10
0.0
 20
-2.745740016278517
 30
0.0
 11
12.0
 21
-2.745740016278517
 31
0.0
  0
LINE
  5
CAF
330
6C3
100
AcDbEntity
  8
0
  6
Continuous
100
AcDbLine
 10
0.0000000000000004
 20
-3.0
 30
0.0
 11
12.0
 21
-3.0
 31
0.0
  0
LINE
  5
CB0
330
6C3
100
AcDbEntity
  8
0
  6
Continuous
100
AcDbLine
 10
0.0
 20
-3.0
 30
0.0
 11
0.0000000000000004
 21
0.0
 31
0.0
  0
LINE
  5
CB1
330
6C3
100
AcDbEntity
  8
0
  6
Continuous
100
AcDbLine
 10
11.99999999999999
 20
-3.0
 30
0.0
 11
11.99999999999999
 21
0.0
 31
0.0
  0
ENDBLK
  5
6C5
330
6C3
100
AcDbEntity
  8
0
100
AcDbBlockEnd
  0
BLOCK
  5
6D2
330
6D1
100
AcDbEntity
  8
0
100
AcDbBlockBegin
  2
wowc002top
 70
     0
 10
0.0
 20
0.0
 30
0.0
  3
wowc002top
  1

  0
LINE
  5
CB3
330
6D1
100
AcDbEntity
  8
0
  6
Continuous
100
AcDbLine
 10
0.0
 20
-0.5584382848049119
 30
0.0
 11
11.99999999999999
 21
-0.5584382848049119
 31
0.0
  0
LINE
  5
CB4
330
6D1
100
AcDbEntity
  8
0
  6
Continuous
100
AcDbLine
 10
0.0
 20
-0.376270118413089
 30
0.0
 11
11.99999999999999
 21
-0.376270118413089
 31
0.0
  0
LINE
  5
CB5
330
6D1
100
AcDbEntity
  8
0
  6
Continuous
100
AcDbLine
 10
0.0
 20
-1.123694436421883
 30
0.0
 11
12.0
 21
-1.123694436421885
 31
0.0
  0
LINE
  5
CB6
330
6D1
100
AcDbEntity
  8
0
  6
Continuous
100
AcDbLine
 10
0.0
 20
-1.062330979074203
 30
0.0
 11
11.99999999999999
 21
-1.062330979074204
 31
0.0
  0
LINE
  5
CB7
330
6D1
100
AcDbEntity
  8
0
  6
Continuous
100
AcDbLine
 10
0.0
 20
0.0
 30
0.0
 11
11.99999999999999
 21
0.0
 31
0.0
  0
LINE
  5
CB8
330
6D1
100
AcDbEntity
  8
0
  6
Continuous
100
AcDbLine
 10
0.0
 20
0.0
 30
0.0
 11
0.0
 21
-1.123694436421883
 31
0.0
  0
LINE
  5
CB9
330
6D1
100
AcDbEntity
  8
0
  6
Continuous
100
AcDbLine
 10
11.99999999999999
 20
0.0000000000000018
 30
0.0
 11
11.99999999999999
 21
-1.123694436421885
 31
0.0
  0
ENDBLK
  5
6D3
330
6D1
100
AcDbEntity
  8
0
100
AcDbBlockEnd
  0
ENDSEC
  0
SECTION
  2
ENTITIES
  0
MTEXT
  5
2DE
330
A
100
AcDbEntity
  8
0
  6
Continuous
100
AcDbMText
 10
-0.1385387034398491
 20
5.288792934030311
 30
0.0
 40
0.35
 41
5.388999999999999
 71
     1
 72
     5
  1
WOWC002\P{\H0.5143x;1 1/8 x 3}
 73
     1
 44
1.0
  0
INSERT
  5
CA7
330
A
100
AcDbEntity
  8
0
  6
Continuous
100
AcDbBlockReference
  2
wowc002end
 10
0.0
 20
3.0
 30
0.0
  0
INSERT
  5
CB2
330
A
100
AcDbEntity
  8
0
  6
Continuous
100
AcDbBlockReference
  2
wowc002front
 10
3.181143596948913
 20
3.0
 30
0.0
  0
INSERT
  5
CBA
330
A
100
AcDbEntity
  8
0
  6
Continuous
100
AcDbBlockReference
  2
wowc002top
 10
3.181143596948913
 20
7.719995881390956
 30
0.0
  0
ENDSEC
  0
SECTION
  2
OBJECTS
  0
DICTIONARY
  5
19
330
0
100
AcDbDictionary
281
     1
  3
ACAD_GROUP
350
1A
  3
ACAD_LAYOUT
350
2CD
  3
ACAD_MLINESTYLE
350
1B
  3
ACAD_PLOTSETTINGS
350
2CE
  3
ACAD_PLOTSTYLENAME
350
2CB
  3
ACDBHEADERROUNDTRIPXREC
350
CC2
  3
AcDbVariableDictionary
350
2D6
  0
DICTIONARY
  5
1A
102
{ACAD_REACTORS
330
19
102
}
330
19
100
AcDbDictionary
281
     1
  0
DICTIONARY
  5
2CD
102
{ACAD_REACTORS
330
19
102
}
330
19
100
AcDbDictionary
281
     1
  3
Layout1
350
2D0
  3
Model
350
2CF
  0
DICTIONARY
  5
1B
102
{ACAD_REACTORS
330
19
102
}
330
19
100
AcDbDictionary
281
     1
  3
STANDARD
350
1C
  0
DICTIONARY
  5
2CE
102
{ACAD_REACTORS
330
19
102
}
330
19
100
AcDbDictionary
281
     1
  0
ACDBDICTIONARYWDFLT
  5
2CB
102
{ACAD_REACTORS
330
19
102
}
330
19
100
AcDbDictionary
281
     1
  3
Normal
350
2CC
100
AcDbDictionaryWithDefault
340
2CC
  0
DICTIONARY
  5
CC2
102
{ACAD_REACTORS
330
19
102
}
330
19
100
AcDbDictionary
281
     1
  3
CEPSNTYPE
350
CCC
  3
FINGERPRINTGUID
350
CCD
  3
HYPERLINKBASE
350
CC5
  3
INSUNITS
350
CCB
  3
LAYOUTDICT
350
CC7
  3
LWETCUNION
350
CCA
  3
PLOTSETDICT
350
CC8
  3
PLOTSTYLNAMDICT
350
CC9
  3
PSVPSCALE
350
CCF
  3
PUCSBASE
350
CD2
  3
PUCSORGBACK
350
CD8
  3
PUCSORGBOTTOM
350
CD4
  3
PUCSORGFRONT
350
CD7
  3
PUCSORGLEFT
350
CD5
  3
PUCSORGRIGHT
350
CD6
  3
PUCSORGTOP
350
CD3
  3
PUCSORTHOREF
350
CD0
  3
PUCSORTHOVIEW
350
CD1
  3
STYLESHEET
350
CC6
  3
TSTACKALIGN
350
CC3
  3
TSTACKSIZE
350
CC4
  3
UCSBASE
350
CDB
  3
UCSORGBACK
350
CE1
  3
UCSORGBOTTOM
350
CDD
  3
UCSORGFRONT
350
CE0
  3
UCSORGLEFT
350
CDE
  3
UCSORGRIGHT
350
CDF
  3
UCSORGTOP
350
CDC
  3
UCSORTHOREF
350
CD9
  3
UCSORTHOVIEW
350
CDA
  3
VERSIONGUID
350
CCE
  0
DICTIONARY
  5
2D6
102
{ACAD_REACTORS
330
19
102
}
330
19
100
AcDbDictionary
281
     1
  3
DIMASSOC
350
2D7
  0
LAYOUT
  5
2D0
102
{ACAD_REACTORS
330
2CD
102
}
330
2CD
100
AcDbPlotSettings
  1

  2
HP Color LaserJet 4600 PS
  4

  6

 40
0.0
 41
0.0
 42
0.0
 43
0.0
 44
0.0
 45
0.0
 46
0.0
 47
0.0
 48
0.0
 49
0.0
140
0.0
141
0.0
142
1.0
143
1.0
 70
   688
 72
     0
 73
     0
 74
     5
  7

 75
    16
147
1.0
148
0.0
149
0.0
100
AcDbLayout
  1
Layout1
 70
     0
 71
     1
 10
0.0
 20
0.0
 11
12.0
 21
9.0
 12
0.0
 22
0.0
 32
0.0
 14
1.000000000000000E+20
 24
1.000000000000000E+20
 34
1.000000000000000E+20
 15
-1.000000000000000E+20
 25
-1.000000000000000E+20
 35
-1.000000000000000E+20
146
0.0
 13
0.0
 23
0.0
 33
0.0
 16
1.0
 26
0.0
 36
0.0
 17
0.0
 27
1.0
 37
0.0
 76
     0
330
B
  0
LAYOUT
  5
2CF
102
{ACAD_REACTORS
330
2CD
102
}
330
2CD
100
AcDbPlotSettings
  1

  2
Panasonic KX-P4410
  4
Letter
  6

 40
5.027083396911621
 41
6.297076702117919
 42
9.683746337890625
 43
7.14373779296875
 44
215.8999938964843
 45
279.3999938964843
 46
0.0
 47
0.0
 48
0.0
 49
0.0
140
0.0
141
0.0
142
1.0
143
1.0
 70
 11952
 72
     0
 73
     1
 74
     0
  7

 75
     0
147
1.0
148
-37.08057733464361
149
29.28089066253022
100
AcDbLayout
  1
Model
 70
     1
 71
     0
 10
0.0
 20
0.0
 11
12.0
 21
9.0
 12
0.0
 22
0.0
 32
0.0
 14
0.0
 24
0.0
 34
0.0
 15
0.0
 25
0.0
 35
0.0
146
0.0
 13
0.0
 23
0.0
 33
0.0
 16
1.0
 26
0.0
 36
0.0
 17
0.0
 27
1.0
 37
0.0
 76
     0
330
A
  0
MLINESTYLE
  5
1C
102
{ACAD_REACTORS
330
1B
102
}
330
1B
100
AcDbMlineStyle
  2
STANDARD
 70
     0
  3

 62
     0
 51
90.00000000000019
 52
90.00000000000019
 71
     2
 49
0.5
 62
   256
  6
BYLAYER
 49
-0.5
 62
   256
  6
BYLAYER
  0
ACDBPLACEHOLDER
  5
2CC
102
{ACAD_REACTORS
330
2CB
102
}
330
2CB
  0
XRECORD
  5
CCC
102
{ACAD_REACTORS
330
CC2
102
}
330
CC2
100
AcDbXrecord
280
     1
 90
        0
  0
XRECORD
  5
CCD
102
{ACAD_REACTORS
330
CC2
102
}
330
CC2
100
AcDbXrecord
280
     1
  1
{80C82F9E-3555-424E-AB98-4A592B083C84}
  0
XRECORD
  5
CC5
102
{ACAD_REACTORS
330
CC2
102
}
330
CC2
100
AcDbXrecord
280
     1
  1

  0
XRECORD
  5
CCB
102
{ACAD_REACTORS
330
CC2
102
}
330
CC2
100
AcDbXrecord
280
     1
 90
        0
  0
XRECORD
  5
CC7
102
{ACAD_REACTORS
330
CC2
102
}
330
CC2
100
AcDbXrecord
280
     1
340
2CD
  0
XRECORD
  5
CCA
102
{ACAD_REACTORS
330
CC2
102
}
330
CC2
100
AcDbXrecord
280
     1
 90
    14877
  0
XRECORD
  5
CC8
102
{ACAD_REACTORS
330
CC2
102
}
330
CC2
100
AcDbXrecord
280
     1
340
2CE
  0
XRECORD
  5
CC9
102
{ACAD_REACTORS
330
CC2
102
}
330
CC2
100
AcDbXrecord
280
     1
340
2CB
  0
XRECORD
  5
CCF
102
{ACAD_REACTORS
330
CC2
102
}
330
CC2
100
AcDbXrecord
280
     1
 40
0.0
  0
XRECORD
  5
CD2
102
{ACAD_REACTORS
330
CC2
102
}
330
CC2
100
AcDbXrecord
280
     1
340
0
  0
XRECORD
  5
CD8
102
{ACAD_REACTORS
330
CC2
102
}
330
CC2
100
AcDbXrecord
280
     1
 10
0.0
 20
0.0
 30
0.0
  0
XRECORD
  5
CD4
102
{ACAD_REACTORS
330
CC2
102
}
330
CC2
100
AcDbXrecord
280
     1
 10
0.0
 20
0.0
 30
0.0
  0
XRECORD
  5
CD7
102
{ACAD_REACTORS
330
CC2
102
}
330
CC2
100
AcDbXrecord
280
     1
 10
0.0
 20
0.0
 30
0.0
  0
XRECORD
  5
CD5
102
{ACAD_REACTORS
330
CC2
102
}
330
CC2
100
AcDbXrecord
280
     1
 10
0.0
 20
0.0
 30
0.0
  0
XRECORD
  5
CD6
102
{ACAD_REACTORS
330
CC2
102
}
330
CC2
100
AcDbXrecord
280
     1
 10
0.0
 20
0.0
 30
0.0
  0
XRECORD
  5
CD3
102
{ACAD_REACTORS
330
CC2
102
}
330
CC2
100
AcDbXrecord
280
     1
 10
0.0
 20
0.0
 30
0.0
  0
XRECORD
  5
CD0
102
{ACAD_REACTORS
330
CC2
102
}
330
CC2
100
AcDbXrecord
280
     1
340
0
  0
XRECORD
  5
CD1
102
{ACAD_REACTORS
330
CC2
102
}
330
CC2
100
AcDbXrecord
280
     1
 70
     0
  0
XRECORD
  5
CC6
102
{ACAD_REACTORS
330
CC2
102
}
330
CC2
100
AcDbXrecord
280
     1
  1

  0
XRECORD
  5
CC3
102
{ACAD_REACTORS
330
CC2
102
}
330
CC2
100
AcDbXrecord
280
     1
 90
        1
  0
XRECORD
  5
CC4
102
{ACAD_REACTORS
330
CC2
102
}
330
CC2
100
AcDbXrecord
280
     1
 90
       70
  0
XRECORD
  5
CDB
102
{ACAD_REACTORS
330
CC2
102
}
330
CC2
100
AcDbXrecord
280
     1
340
0
  0
XRECORD
  5
CE1
102
{ACAD_REACTORS
330
CC2
102
}
330
CC2
100
AcDbXrecord
280
     1
 10
0.0
 20
0.0
 30
0.0
  0
XRECORD
  5
CDD
102
{ACAD_REACTORS
330
CC2
102
}
330
CC2
100
AcDbXrecord
280
     1
 10
0.0
 20
0.0
 30
0.0
  0
XRECORD
  5
CE0
102
{ACAD_REACTORS
330
CC2
102
}
330
CC2
100
AcDbXrecord
280
     1
 10
0.0
 20
0.0
 30
0.0
  0
XRECORD
  5
CDE
102
{ACAD_REACTORS
330
CC2
102
}
330
CC2
100
AcDbXrecord
280
     1
 10
0.0
 20
0.0
 30
0.0
  0
XRECORD
  5
CDF
102
{ACAD_REACTORS
330
CC2
102
}
330
CC2
100
AcDbXrecord
280
     1
 10
0.0
 20
0.0
 30
0.0
  0
XRECORD
  5
CDC
102
{ACAD_REACTORS
330
CC2
102
}
330
CC2
100
AcDbXrecord
280
     1
 10
0.0
 20
0.0
 30
0.0
  0
XRECORD
  5
CD9
102
{ACAD_REACTORS
330
CC2
102
}
330
CC2
100
AcDbXrecord
280
     1
340
0
  0
XRECORD
  5
CDA
102
{ACAD_REACTORS
330
CC2
102
}
330
CC2
100
AcDbXrecord
280
     1
 70
     0
  0
XRECORD
  5
CCE
102
{ACAD_REACTORS
330
CC2
102
}
330
CC2
100
AcDbXrecord
280
     1
  1
{C6458148-26EC-11D7-BC24-0050FC22165F}
  0
DICTIONARYVAR
  5
2D7
102
{ACAD_REACTORS
330
2D6
102
}
330
2D6
100
DictionaryVariables
280
     0
  1
1
  0
ENDSEC
  0
EOF
