  0
SECTION
  2
HEADER
  9
$ACADVER
  1
AC1015
  9
$ACADMAINTVER
 70
     6
  9
$DWGCODEPAGE
  3
ANSI_932
  9
$INSBASE
 10
0.0
 20
0.0
 30
0.0
  9
$EXTMIN
 10
41.804167
 20
92.952466
 30
1.000000E+20
  9
$EXTMAX
 10
102.981828
 20
189.676794
 30
-1.000000E+20
  9
$LIMMIN
 10
41.804167
 20
92.952466
  9
$LIMMAX
 10
102.981828
 20
189.676794
  9
$ORTHOMODE
 70
     0
  9
$REGENMODE
 70
     1
  9
$FILLMODE
 70
     1
  9
$QTEXTMODE
 70
     0
  9
$MIRRTEXT
 70
     1
  9
$LTSCALE
 40
1.0
  9
$ATTMODE
 70
     1
  9
$TEXTSIZE
 40
0.2
  9
$TRACEWID
 40
0.05
  9
$TEXTSTYLE
  7
Standard
  9
$CLAYER
  8
0
  9
$CELTYPE
  6
Continuous
  9
$CECOLOR
 62
   256
  9
$CELTSCALE
 40
1.0
  9
$DISPSILH
 70
     0
  9
$DIMSCALE
 40
1.0
  9
$DIMASZ
 40
0.18
  9
$DIMEXO
 40
0.0625
  9
$DIMDLI
 40
0.38
  9
$DIMRND
 40
0.0
  9
$DIMDLE
 40
0.0
  9
$DIMEXE
 40
0.18
  9
$DIMTP
 40
0.0
  9
$DIMTM
 40
0.0
  9
$DIMTXT
 40
0.18
  9
$DIMCEN
 40
0.09
  9
$DIMTSZ
 40
0.0
  9
$DIMTOL
 70
     0
  9
$DIMLIM
 70
     0
  9
$DIMTIH
 70
     1
  9
$DIMTOH
 70
     1
  9
$DIMSE1
 70
     0
  9
$DIMSE2
 70
     0
  9
$DIMTAD
 70
     0
  9
$DIMZIN
 70
     0
  9
$DIMBLK
  1

  9
$DIMASO
 70
     1
  9
$DIMSHO
 70
     1
  9
$DIMPOST
  1

  9
$DIMAPOST
  1

  9
$DIMALT
 70
     0
  9
$DIMALTD
 70
     2
  9
$DIMALTF
 40
25.4
  9
$DIMLFAC
 40
1.0
  9
$DIMTOFL
 70
     0
  9
$DIMTVP
 40
0.0
  9
$DIMTIX
 70
     0
  9
$DIMSOXD
 70
     0
  9
$DIMSAH
 70
     0
  9
$DIMBLK1
  1

  9
$DIMBLK2
  1

  9
$DIMSTYLE
  2
Standard
  9
$DIMCLRD
 70
     0
  9
$DIMCLRE
 70
     0
  9
$DIMCLRT
 70
     0
  9
$DIMTFAC
 40
1.0
  9
$DIMGAP
 40
0.09
  9
$DIMJUST
 70
     0
  9
$DIMSD1
 70
     0
  9
$DIMSD2
 70
     0
  9
$DIMTOLJ
 70
     1
  9
$DIMTZIN
 70
     0
  9
$DIMALTZ
 70
     0
  9
$DIMALTTZ
 70
     0
  9
$DIMUPT
 70
     0
  9
$DIMDEC
 70
     4
  9
$DIMTDEC
 70
     4
  9
$DIMALTU
 70
     2
  9
$DIMALTTD
 70
     2
  9
$DIMTXSTY
  7
Standard
  9
$DIMAUNIT
 70
     0
  9
$DIMADEC
 70
     0
  9
$DIMALTRND
 40
0.0
  9
$DIMAZIN
 70
     0
  9
$DIMDSEP
 70
     0
  9
$DIMATFIT
 70
     3
  9
$DIMFRAC
 70
     0
  9
$DIMLDRBLK
  1

  9
$DIMLUNIT
 70
     2
  9
$DIMLWD
 70
     0
  9
$DIMLWE
 70
     0
  9
$DIMTMOVE
 70
     0
  9
$LUNITS
 70
     2
  9
$LUPREC
 70
     4
  9
$SKETCHINC
 40
0.1
  9
$FILLETRAD
 40
0.0
  9
$AUNITS
 70
     0
  9
$AUPREC
 70
     0
  9
$MENU
  1
acad
  9
$ELEVATION
 40
0.0
  9
$PELEVATION
 40
0.0
  9
$THICKNESS
 40
0.0
  9
$LIMCHECK
 70
     0
  9
$CHAMFERA
 40
0.0
  9
$CHAMFERB
 40
0.0
  9
$CHAMFERC
 40
0.0
  9
$CHAMFERD
 40
0.0
  9
$SKPOLY
 70
     0
  9
$TDCREATE
 40
0.000000000
  9
$TDUCREATE
 40
0.000000000
  9
$TDUPDATE
 40
0.000000000
  9
$TDUUPDATE
 40
0.000000000
  9
$TDINDWG
 40
0.0000000000
  9
$TDUSRTIMER
 40
0.0000000000
  9
$USRTIMER
 70
     1
  9
$ANGBASE
 50
0.0
  9
$ANGDIR
 70
     0
  9
$PDMODE
 70
     0
  9
$PDSIZE
 40
0.0
  9
$PLINEWID
 40
0.0
  9
$SPLFRAME
 70
     0
  9
$SPLINETYPE
 70
     6
  9
$SPLINESEGS
 70
     8
  9
$HANDSEED
  5
B0
  9
$SURFTAB1
 70
     6
  9
$SURFTAB2
 70
     6
  9
$SURFTYPE
 70
     6
  9
$SURFU
 70
     6
  9
$SURFV
 70
     6
  9
$UCSBASE
  2

  9
$UCSNAME
  2

  9
$UCSORG
 10
0.0
 20
0.0
 30
0.0
  9
$UCSXDIR
 10
1.0
 20
0.0
 30
0.0
  9
$UCSYDIR
 10
0.0
 20
1.0
 30
0.0
  9
$UCSORTHOREF
  2

  9
$UCSORTHOVIEW
 70
     0
  9
$UCSORGTOP
 10
0.0
 20
0.0
 30
0.0
  9
$UCSORGBOTTOM
 10
0.0
 20
0.0
 30
0.0
  9
$UCSORGLEFT
 10
0.0
 20
0.0
 30
0.0
  9
$UCSORGRIGHT
 10
0.0
 20
0.0
 30
0.0
  9
$UCSORGFRONT
 10
0.0
 20
0.0
 30
0.0
  9
$UCSORGBACK
 10
0.0
 20
0.0
 30
0.0
  9
$PUCSBASE
  2

  9
$PUCSNAME
  2

  9
$PUCSORG
 10
0.0
 20
0.0
 30
0.0
  9
$PUCSXDIR
 10
1.0
 20
0.0
 30
0.0
  9
$PUCSYDIR
 10
0.0
 20
1.0
 30
0.0
  9
$PUCSORTHOREF
  2

  9
$PUCSORTHOVIEW
 70
     0
  9
$PUCSORGTOP
 10
0.0
 20
0.0
 30
0.0
  9
$PUCSORGBOTTOM
 10
0.0
 20
0.0
 30
0.0
  9
$PUCSORGLEFT
 10
0.0
 20
0.0
 30
0.0
  9
$PUCSORGRIGHT
 10
0.0
 20
0.0
 30
0.0
  9
$PUCSORGFRONT
 10
0.0
 20
0.0
 30
0.0
  9
$PUCSORGBACK
 10
0.0
 20
0.0
 30
0.0
  9
$USERI1
 70
     0
  9
$USERI2
 70
     0
  9
$USERI3
 70
     0
  9
$USERI4
 70
     0
  9
$USERI5
 70
     0
  9
$USERR1
 40
0.0
  9
$USERR2
 40
0.0
  9
$USERR3
 40
0.0
  9
$USERR4
 40
0.0
  9
$USERR5
 40
0.0
  9
$WORLDVIEW
 70
     1
  9
$SHADEDGE
 70
     3
  9
$SHADEDIF
 70
    70
  9
$TILEMODE
 70
     1
  9
$MAXACTVP
 70
    16
  9
$PINSBASE
 10
0.0
 20
0.0
 30
0.0
  9
$PLIMCHECK
 70
     0
  9
$PEXTMIN
 10
1.000000E+20
 20
1.000000E+20
 30
1.000000E+20
  9
$PEXTMAX
 10
-1.000000E+20
 20
-1.000000E+20
 30
-1.000000E+20
  9
$PLIMMIN
 10
0.0
 20
0.0
  9
$PLIMMAX
 10
12.0
 20
9.0
  9
$UNITMODE
 70
     0
  9
$VISRETAIN
 70
     0
  9
$PLINEGEN
 70
     1
  9
$PSLTSCALE
 70
     0
  9
$TREEDEPTH
 70
  3020
  9
$CMLSTYLE
  2
Standard
  9
$CMLJUST
 70
     0
  9
$CMLSCALE
 40
1.0
  9
$PROXYGRAPHICS
 70
     0
  9
$MEASUREMENT
 70
     0
  9
$CELWEIGHT
370
     0
  9
$ENDCAPS
280
     0
  9
$JOINSTYLE
280
     0
  9
$LWDISPLAY
290
     0
  9
$INSUNITS
 70
     0
  9
$HYPERLINKBASE
  1

  9
$XEDIT
290
     1
  9
$CEPSNTYPE
380
     0
  9
$PSTYLEMODE
290
     1
  9
$FINGERPRINTGUID
  2

  9
$VERSIONGUID
  2

  9
$EXTNAMES
290
     1
  9
$PSVPSCALE
 40
0.0
  0
ENDSEC
  0
SECTION
  2
CLASSES
  0
CLASS
  1
LWPOLYLINE
  2
AcDbPolyline
  3
"AutoCAD"
 90
        0
280
     0
281
     1
  0
CLASS
  1
IMAGE
  2
AcDbRasterImage
  3
ISM
 90
      127
280
     0
281
     1
  0
CLASS
  1
OLE2FRAME
  2
AcDbOle2Frame
  3
""
 90
        0
280
     0
281
     1
  0
CLASS
  1
HATCH
  2
AcDbHatch
  3
"ACAD_SEDONA"
 90
        0
280
     0
281
     1
  0
CLASS
  1
DICTIONARYVAR
  2
AcDbDictionaryVar
  3
"AutoCAD"
 90
        0
280
     0
281
     0
  0
CLASS
  1
RASTERVARIABLES
  2
AcDbRasterVariables
  3
ISM
 90
        0
280
     0
281
     0
  0
CLASS
  1
IMAGEDEF
  2
AcDbRasterImageDef
  3
ISM
 90
        0
280
     0
281
     0
  0
CLASS
  1
IMAGEDEF_REACTOR
  2
AcDbRasterImageDefReactor
  3
ISM
 90
        1
280
     0
281
     0
  0
CLASS
  1
IDBUFFER
  2
AcDbIdBuffer
  3
"Acad"
 90
        0
280
     0
281
     0
  0
CLASS
  1
SPATIAL_FILTER
  2
AcDbSpatialFilter
  3
"Acad"
 90
        0
280
     0
281
     0
  0
CLASS
  1
XRECORD
  2
AcDbXrecord
  3
"<Built In>"
 90
        0
280
     0
281
     0
  0
CLASS
  1
SORTENTSTABLE
  2
AcDbSortentsTable
  3
"AutoCAD"
 90
        0
280
     0
281
     0
  0
CLASS
  1
LAYER_INDEX
  2
AcDbLayerIndex
  3
"Acad"
 90
        0
280
     0
281
     0
  0
CLASS
  1
SPATIAL_INDEX
  2
AcDbSpatialIndex
  3
"Acad"
 90
        0
280
     0
281
     0
  0
CLASS
  1
OBJECT_PTR
  2
CAseDLPNTableRecord
  3
"ASE-LPNTableRecord"
 90
        1
280
     0
281
     0
  0
CLASS
  1
LAYOUT
  2
AcDbLayout
  3
"AutoCAD 2000"
 90
        1
280
     0
281
     0
  0
CLASS
  1
PLOTSETTINGS
  2
AcDbPlotSettings
  3
"AutoCAD 2000"
 90
        1
280
     0
281
     0
  0
CLASS
  1
ACDBDICTIONARYWDFLT
  2
AcDbDictionaryWithDefault
  3
"AutoCAD 2000"
 90
        1
280
     0
281
     0
  0
CLASS
  1
ACDBPLACEHOLDER
  2
AcDbPlaceHolder
  3
"AutoCAD 2000"
 90
        1
280
     0
281
     0
  0
CLASS
  1
VBA_PROJECT
  2
AcDbVbaProject
  3
"acadvba"
 90
        1
280
     0
281
     0
  0
CLASS
  1
WIPEOUT
  2
AcDbWipeout
  3
WipeOut|AutoCAD Express Tool|expresstools@autodesk.com
 90
      127
280
     0
281
     1
  0
CLASS
  1
WIPEOUTVARIABLES
  2
AcDbWipeoutVariables
  3
WipeOut|AutoCAD Express Tool|expresstools@autodesk.com
 90
        0
280
     0
281
     0
  0
CLASS
  1
RTEXT
  2
RText
  3
RText|AutoCAD Express Tool|expresstools@autodesk.com
 90
        0
280
     0
281
     1
  0
CLASS
  1
ARCALIGNEDTEXT
  2
AcDbArcAlignedText
  3
ATEXT|AutoCAD Express Tool|expresstools@autodesk.com
 90
        0
280
     0
281
     1
  0
ENDSEC
  0
SECTION
  2
TABLES
  0
TABLE
  2
VPORT
  5
7
100
AcDbSymbolTable
 70
     1
  0
VPORT
  5
15
100
AcDbSymbolTableRecord
100
AcDbViewportTableRecord
  2
*ACTIVE
 70
     0
 10
0.0
 20
0.0
 11
1.0
 21
1.0
 12
6.591288
 22
4.579184
 13
0.0
 23
0.0
 14
1.0
 24
1.0
 15
0.0
 25
0.0
 16
0.0
 26
0.0
 36
1.0
 17
0.0
 27
0.0
 37
0.0
 40
9.158369
 41
0.688564
 42
50.0
 43
0.0
 44
0.0
 50
0.0
 51
0.0
 71
     0
 72
   100
 73
     1
 74
     1
 75
     0
 76
     0
 77
     0
 78
     0
281
     0
 65
     0
110
0.0
120
0.0
130
0.0
111
1.0
121
0.0
131
0.0
112
0.0
122
1.0
132
0.0
345
0
346
0
 79
     0
146
0.0
  0
ENDTAB
  0
TABLE
  2
LTYPE
  5
4
100
AcDbSymbolTable
 70
     3
  0
LTYPE
  5
11
100
AcDbSymbolTableRecord
100
AcDbLinetypeTableRecord
  2
ByBlock
 70
    64
  3

 72
    65
 73
     0
 40
0.0
  0
LTYPE
  5
12
100
AcDbSymbolTableRecord
100
AcDbLinetypeTableRecord
  2
ByLayer
 70
    64
  3

 72
    65
 73
     0
 40
0.0
  0
LTYPE
  5
13
100
AcDbSymbolTableRecord
100
AcDbLinetypeTableRecord
  2
Continuous
 70
    64
  3
Solid line
 72
    65
 73
     0
 40
0.0
  0
ENDTAB
  0
TABLE
  2
LAYER
  5
2
100
AcDbSymbolTable
 70
     2
  0
LAYER
  5
14
100
AcDbSymbolTableRecord
100
AcDbLayerTableRecord
  2
0
 70
     0
 62
     7
  6
Continuous
290
     1
370
    -3
390
1D
  0
LAYER
  5
28
100
AcDbSymbolTableRecord
100
AcDbLayerTableRecord
  2
LAYER_2
 70
     0
 62
     1
  6
Continuous
290
     1
370
    -3
390
1F
  0
ENDTAB
  0
TABLE
  2
STYLE
  5
3
100
AcDbSymbolTable
 70
     5
  0
STYLE
  5
17
100
AcDbSymbolTableRecord
100
AcDbTextStyleTableRecord
  2
Standard
 70
     0
 40
0.0
 41
1.0
 50
0.0
 71
     0
 42
0.0
  3
txt
  4

  0
STYLE
  5
24
100
AcDbSymbolTableRecord
100
AcDbTextStyleTableRecord
  2
STD
 70
     0
 40
0.0
 41
1.0
 50
0.0
 71
     0
 42
0.0
  3
txt
  4

  0
STYLE
  5
25
100
AcDbSymbolTableRecord
100
AcDbTextStyleTableRecord
  2
TATESTD
 70
     4
 40
0.0
 41
1.0
 50
0.0
 71
     0
 42
0.0
  3
txt
  4

  0
STYLE
  5
26
100
AcDbSymbolTableRecord
100
AcDbTextStyleTableRecord
  2
KANJISTD
 70
     0
 40
0.0
 41
1.0
 50
0.0
 71
     0
 42
0.0
  3
txt
  4
extfont
  0
STYLE
  5
27
100
AcDbSymbolTableRecord
100
AcDbTextStyleTableRecord
  2
KANJITATE
 70
     4
 40
0.0
 41
1.0
 50
0.0
 71
     0
 42
0.0
  3
txt
  4
extfont
  0
ENDTAB
  0
TABLE
  2
VIEW
  5
5
100
AcDbSymbolTable
 70
     0
  0
ENDTAB
  0
TABLE
  2
UCS
  5
6
100
AcDbSymbolTable
 70
     0
  0
ENDTAB
  0
TABLE
  2
APPID
  5
8
100
AcDbSymbolTable
 70
     1
  0
APPID
  5
16
100
AcDbSymbolTableRecord
100
AcDbRegAppTableRecord
  2
ACAD
 70
     0
  0
ENDTAB
  0
TABLE
  2
DIMSTYLE
  5
9
100
AcDbSymbolTable
 70
     1
100
AcDbDimStyleTable
 71
     0
  0
DIMSTYLE
105
18
100
AcDbSymbolTableRecord
100
AcDbDimStyleTableRecord
  2
Standard
 70
     0
  3

  4

 40
1.0
 41
0.18
 42
0.0625
 43
0.38
 44
0.18
 45
0.0
 46
0.0
 47
0.0
 48
0.0
 71
     0
 72
     0
 73
     1
 74
     1
 75
     0
 76
     0
 77
     0
 78
     0
 79
     0
140
0.18
141
0.09
142
0.0
143
25.4
144
1.0
145
0.0
146
1.0
147
0.09
148
0.0
170
     0
171
     2
172
     0
173
     0
174
     0
175
     0
176
     0
177
     0
178
     0
179
     0
271
     4
272
     4
273
     2
274
     2
275
     0
276
     0
277
     2
278
    46
279
     0
280
     0
281
     0
282
     0
283
     1
284
     0
285
     0
286
     0
288
     0
340
17
341
0
342
0
343
0
344
0
371
    -2
372
    -2
  0
ENDTAB
  0
TABLE
  2
BLOCK_RECORD
  5
1
100
AcDbSymbolTable
 70
    11
  0
BLOCK_RECORD
  5
A
100
AcDbSymbolTableRecord
100
AcDbBlockTableRecord
  2
*MODEL_SPACE
340
20
  0
BLOCK_RECORD
  5
B
100
AcDbSymbolTableRecord
100
AcDbBlockTableRecord
  2
*PAPER_SPACE
340
21
  0
BLOCK_RECORD
  5
29
100
AcDbSymbolTableRecord
100
AcDbBlockTableRecord
  2
AI9-BLK1
340
0
  0
BLOCK_RECORD
  5
31
100
AcDbSymbolTableRecord
100
AcDbBlockTableRecord
  2
AI9-BLK2
340
0
  0
BLOCK_RECORD
  5
39
100
AcDbSymbolTableRecord
100
AcDbBlockTableRecord
  2
AI9-BLK3
340
0
  0
BLOCK_RECORD
  5
41
100
AcDbSymbolTableRecord
100
AcDbBlockTableRecord
  2
AI9-BLK4
340
0
  0
BLOCK_RECORD
  5
4B
100
AcDbSymbolTableRecord
100
AcDbBlockTableRecord
  2
AI9-BLK5
340
0
  0
BLOCK_RECORD
  5
53
100
AcDbSymbolTableRecord
100
AcDbBlockTableRecord
  2
AI9-BLK6
340
0
  0
BLOCK_RECORD
  5
5E
100
AcDbSymbolTableRecord
100
AcDbBlockTableRecord
  2
AI9-BLK7
340
0
  0
BLOCK_RECORD
  5
66
100
AcDbSymbolTableRecord
100
AcDbBlockTableRecord
  2
AI9-BLK8
340
0
  0
BLOCK_RECORD
  5
6E
100
AcDbSymbolTableRecord
100
AcDbBlockTableRecord
  2
AI9-BLK9
340
0
  0
BLOCK_RECORD
  5
76
100
AcDbSymbolTableRecord
100
AcDbBlockTableRecord
  2
AI9-BLK10
340
0
  0
BLOCK_RECORD
  5
7B
100
AcDbSymbolTableRecord
100
AcDbBlockTableRecord
  2
AI9-BLK11
340
0
  0
ENDTAB
  0
ENDSEC
  0
SECTION
  2
BLOCKS
  0
BLOCK
  5
D
100
AcDbEntity
  8
0
100
AcDbBlockBegin
  2
*MODEL_SPACE
 70
     0
 10
0.0
 20
0.0
 30
0.0
  3
*MODEL_SPACE
  1

  0
ENDBLK
  5
E
100
AcDbEntity
  8
0
100
AcDbBlockEnd
  0
BLOCK
  5
F
100
AcDbEntity
 67
     1
  8
0
100
AcDbBlockBegin
  2
*PAPER_SPACE
 70
     0
 10
0.0
 20
0.0
 30
0.0
  3
*PAPER_SPACE
  1

  0
ENDBLK
  5
10
100
AcDbEntity
 67
     1
  8
0
100
AcDbBlockEnd
  0
BLOCK
  5
2B
100
AcDbEntity
  8
LAYER_2
 62
     7
100
AcDbBlockBegin
  2
AI9-BLK1
 70
     0
 10
0.0
 20
0.0
 30
0.0
  3
AI9-BLK1
  1

  0
MTEXT
  5
2F
100
AcDbEntity
  8
LAYER_2
 62
     7
100
AcDbMText
 10
-1.454089
 20
1.189124
 30
0.0
 40
2.362351
 41
0.0
 71
     1
 72
     2
  1
\fUnivers 57 Condensed|b0|i0;   "
  7
STD
210
0.0
220
0.0
230
1.0
 11
1.000001
 21
0.0
 31
0.0
 73
     1
 44
1.0
  0
MTEXT
  5
2E
100
AcDbEntity
  8
LAYER_2
 62
     7
100
AcDbMText
 10
-1.281145
 20
1.069399
 30
0.0
 40
1.049934
 41
0.0
 71
     1
 72
     2
  1
\fUnivers 57 Condensed|b0|i0;1
  7
STD
210
0.0
220
0.0
230
1.0
 11
1.000001
 21
0.0
 31
0.0
 73
     1
 44
1.0
  0
MTEXT
  5
2D
100
AcDbEntity
  8
LAYER_2
 62
     7
100
AcDbMText
 10
-0.491529
 20
-0.060593
 30
0.0
 40
1.049934
 41
0.0
 71
     1
 72
     2
  1
\fUnivers 57 Condensed|b0|i0;4
  7
STD
210
0.0
220
0.0
230
1.0
 11
1.000001
 21
0.0
 31
0.0
 73
     1
 44
1.0
  0
LINE
  5
2C
100
AcDbEntity
  8
LAYER_2
 62
     7
100
AcDbLine
 10
-1.232397
 20
-1.11535
 30
0.0
 11
0.041427
 21
0.930348
 31
0.0
  0
ENDBLK
  5
30
100
AcDbEntity
  8
LAYER_2
100
AcDbBlockEnd
  0
BLOCK
  5
33
100
AcDbEntity
  8
LAYER_2
 62
     7
100
AcDbBlockBegin
  2
AI9-BLK2
 70
     0
 10
0.0
 20
0.0
 30
0.0
  3
AI9-BLK2
  1

  0
MTEXT
  5
37
100
AcDbEntity
  8
LAYER_2
 62
     7
100
AcDbMText
 10
-1.454089
 20
1.18921
 30
0.0
 40
2.362351
 41
0.0
 71
     1
 72
     2
  1
\fUnivers 57 Condensed|b0|i0;   "
  7
STD
210
0.0
220
0.0
230
1.0
 11
1.000001
 21
0.0
 31
0.0
 73
     1
 44
1.0
  0
MTEXT
  5
36
100
AcDbEntity
  8
LAYER_2
 62
     7
100
AcDbMText
 10
-1.281145
 20
1.069485
 30
0.0
 40
1.049934
 41
0.0
 71
     1
 72
     2
  1
\fUnivers 57 Condensed|b0|i0;7
  7
STD
210
0.0
220
0.0
230
1.0
 11
1.000001
 21
0.0
 31
0.0
 73
     1
 44
1.0
  0
MTEXT
  5
35
100
AcDbEntity
  8
LAYER_2
 62
     7
100
AcDbMText
 10
-0.491529
 20
-0.060507
 30
0.0
 40
1.049934
 41
0.0
 71
     1
 72
     2
  1
\fUnivers 57 Condensed|b0|i0;8
  7
STD
210
0.0
220
0.0
230
1.0
 11
1.000001
 21
0.0
 31
0.0
 73
     1
 44
1.0
  0
LINE
  5
34
100
AcDbEntity
  8
LAYER_2
 62
     7
100
AcDbLine
 10
-1.232397
 20
-1.115264
 30
0.0
 11
0.041427
 21
0.930434
 31
0.0
  0
ENDBLK
  5
38
100
AcDbEntity
  8
LAYER_2
100
AcDbBlockEnd
  0
BLOCK
  5
3B
100
AcDbEntity
  8
LAYER_2
 62
     7
100
AcDbBlockBegin
  2
AI9-BLK3
 70
     0
 10
0.0
 20
0.0
 30
0.0
  3
AI9-BLK3
  1

  0
MTEXT
  5
3F
100
AcDbEntity
  8
LAYER_2
 62
     7
100
AcDbMText
 10
-2.158869
 20
1.189124
 30
0.0
 40
2.362351
 41
0.0
 71
     1
 72
     2
  1
\fUnivers 57 Condensed|b0|i0;1   "
  7
STD
210
0.0
220
0.0
230
1.0
 11
1.000001
 21
0.0
 31
0.0
 73
     1
 44
1.0
  0
MTEXT
  5
3E
100
AcDbEntity
  8
LAYER_2
 62
     7
100
AcDbMText
 10
-0.574814
 20
1.069399
 30
0.0
 40
1.049934
 41
0.0
 71
     1
 72
     2
  1
\fUnivers 57 Condensed|b0|i0;3
  7
STD
210
0.0
220
0.0
230
1.0
 11
1.000001
 21
0.0
 31
0.0
 73
     1
 44
1.0
  0
MTEXT
  5
3D
100
AcDbEntity
  8
LAYER_2
 62
     7
100
AcDbMText
 10
0.214802
 20
-0.060593
 30
0.0
 40
1.049934
 41
0.0
 71
     1
 72
     2
  1
\fUnivers 57 Condensed|b0|i0;4
  7
STD
210
0.0
220
0.0
230
1.0
 11
1.000001
 21
0.0
 31
0.0
 73
     1
 44
1.0
  0
LINE
  5
3C
100
AcDbEntity
  8
LAYER_2
 62
     7
100
AcDbLine
 10
-0.526066
 20
-1.115694
 30
0.0
 11
0.747586
 21
0.930004
 31
0.0
  0
ENDBLK
  5
40
100
AcDbEntity
  8
LAYER_2
100
AcDbBlockEnd
  0
BLOCK
  5
43
100
AcDbEntity
  8
LAYER_2
 62
     7
100
AcDbBlockBegin
  2
AI9-BLK4
 70
     0
 10
0.0
 20
0.0
 30
0.0
  3
AI9-BLK4
  1

  0
MTEXT
  5
47
100
AcDbEntity
  8
LAYER_2
 62
     7
100
AcDbMText
 10
-1.454089
 20
1.18921
 30
0.0
 40
2.362351
 41
0.0
 71
     1
 72
     2
  1
\fUnivers 57 Condensed|b0|i0;   "
  7
STD
210
0.0
220
0.0
230
1.0
 11
1.000001
 21
0.0
 31
0.0
 73
     1
 44
1.0
  0
MTEXT
  5
46
100
AcDbEntity
  8
LAYER_2
 62
     7
100
AcDbMText
 10
-1.281145
 20
1.069485
 30
0.0
 40
1.049934
 41
0.0
 71
     1
 72
     2
  1
\fUnivers 57 Condensed|b0|i0;3
  7
STD
210
0.0
220
0.0
230
1.0
 11
1.000001
 21
0.0
 31
0.0
 73
     1
 44
1.0
  0
MTEXT
  5
45
100
AcDbEntity
  8
LAYER_2
 62
     7
100
AcDbMText
 10
-0.491529
 20
-0.060507
 30
0.0
 40
1.049934
 41
0.0
 71
     1
 72
     2
  1
\fUnivers 57 Condensed|b0|i0;4
  7
STD
210
0.0
220
0.0
230
1.0
 11
1.000001
 21
0.0
 31
0.0
 73
     1
 44
1.0
  0
LINE
  5
44
100
AcDbEntity
  8
LAYER_2
 62
     7
100
AcDbLine
 10
-1.232397
 20
-1.115264
 30
0.0
 11
0.041427
 21
0.930434
 31
0.0
  0
ENDBLK
  5
48
100
AcDbEntity
  8
LAYER_2
100
AcDbBlockEnd
  0
BLOCK
  5
4D
100
AcDbEntity
  8
LAYER_2
 62
     7
100
AcDbBlockBegin
  2
AI9-BLK5
 70
     0
 10
0.0
 20
0.0
 30
0.0
  3
AI9-BLK5
  1

  0
MTEXT
  5
51
100
AcDbEntity
  8
LAYER_2
 62
     7
100
AcDbMText
 10
-1.454089
 20
1.189124
 30
0.0
 40
2.362351
 41
0.0
 71
     1
 72
     2
  1
\fUnivers 57 Condensed|b0|i0;   "
  7
STD
210
0.0
220
0.0
230
1.0
 11
1.000001
 21
0.0
 31
0.0
 73
     1
 44
1.0
  0
MTEXT
  5
50
100
AcDbEntity
  8
LAYER_2
 62
     7
100
AcDbMText
 10
-1.281145
 20
1.069399
 30
0.0
 40
1.049934
 41
0.0
 71
     1
 72
     2
  1
\fUnivers 57 Condensed|b0|i0;3
  7
STD
210
0.0
220
0.0
230
1.0
 11
1.000001
 21
0.0
 31
0.0
 73
     1
 44
1.0
  0
MTEXT
  5
4F
100
AcDbEntity
  8
LAYER_2
 62
     7
100
AcDbMText
 10
-0.491529
 20
-0.060593
 30
0.0
 40
1.049934
 41
0.0
 71
     1
 72
     2
  1
\fUnivers 57 Condensed|b0|i0;16
  7
STD
210
0.0
220
0.0
230
1.0
 11
1.000001
 21
0.0
 31
0.0
 73
     1
 44
1.0
  0
LINE
  5
4E
100
AcDbEntity
  8
LAYER_2
 62
     7
100
AcDbLine
 10
-1.232397
 20
-1.11535
 30
0.0
 11
0.041427
 21
0.930348
 31
0.0
  0
ENDBLK
  5
52
100
AcDbEntity
  8
LAYER_2
100
AcDbBlockEnd
  0
BLOCK
  5
55
100
AcDbEntity
  8
LAYER_2
 62
     7
100
AcDbBlockBegin
  2
AI9-BLK6
 70
     0
 10
0.0
 20
0.0
 30
0.0
  3
AI9-BLK6
  1

  0
MTEXT
  5
59
100
AcDbEntity
  8
LAYER_2
 62
     7
100
AcDbMText
 10
-1.454089
 20
1.189124
 30
0.0
 40
2.362351
 41
0.0
 71
     1
 72
     2
  1
\fUnivers 57 Condensed|b0|i0;   "
  7
STD
210
0.0
220
0.0
230
1.0
 11
1.000001
 21
0.0
 31
0.0
 73
     1
 44
1.0
  0
MTEXT
  5
58
100
AcDbEntity
  8
LAYER_2
 62
     7
100
AcDbMText
 10
-1.281145
 20
1.069399
 30
0.0
 40
1.049934
 41
0.0
 71
     1
 72
     2
  1
\fUnivers 57 Condensed|b0|i0;1
  7
STD
210
0.0
220
0.0
230
1.0
 11
1.000001
 21
0.0
 31
0.0
 73
     1
 44
1.0
  0
MTEXT
  5
57
100
AcDbEntity
  8
LAYER_2
 62
     7
100
AcDbMText
 10
-0.491529
 20
-0.060593
 30
0.0
 40
1.049934
 41
0.0
 71
     1
 72
     2
  1
\fUnivers 57 Condensed|b0|i0;8
  7
STD
210
0.0
220
0.0
230
1.0
 11
1.000001
 21
0.0
 31
0.0
 73
     1
 44
1.0
  0
LINE
  5
56
100
AcDbEntity
  8
LAYER_2
 62
     7
100
AcDbLine
 10
-1.232397
 20
-1.11535
 30
0.0
 11
0.041427
 21
0.930348
 31
0.0
  0
ENDBLK
  5
5A
100
AcDbEntity
  8
LAYER_2
100
AcDbBlockEnd
  0
BLOCK
  5
60
100
AcDbEntity
  8
LAYER_2
 62
     7
100
AcDbBlockBegin
  2
AI9-BLK7
 70
     0
 10
0.0
 20
0.0
 30
0.0
  3
AI9-BLK7
  1

  0
MTEXT
  5
64
100
AcDbEntity
  8
LAYER_2
 62
     7
100
AcDbMText
 10
-1.454089
 20
1.189124
 30
0.0
 40
2.362351
 41
0.0
 71
     1
 72
     2
  1
\fUnivers 57 Condensed|b0|i0;   "
  7
STD
210
0.0
220
0.0
230
1.0
 11
1.000001
 21
0.0
 31
0.0
 73
     1
 44
1.0
  0
MTEXT
  5
63
100
AcDbEntity
  8
LAYER_2
 62
     7
100
AcDbMText
 10
-1.281145
 20
1.069399
 30
0.0
 40
1.049934
 41
0.0
 71
     1
 72
     2
  1
\fUnivers 57 Condensed|b0|i0;5
  7
STD
210
0.0
220
0.0
230
1.0
 11
1.000001
 21
0.0
 31
0.0
 73
     1
 44
1.0
  0
MTEXT
  5
62
100
AcDbEntity
  8
LAYER_2
 62
     7
100
AcDbMText
 10
-0.491529
 20
-0.060593
 30
0.0
 40
1.049934
 41
0.0
 71
     1
 72
     2
  1
\fUnivers 57 Condensed|b0|i0;16
  7
STD
210
0.0
220
0.0
230
1.0
 11
1.000001
 21
0.0
 31
0.0
 73
     1
 44
1.0
  0
LINE
  5
61
100
AcDbEntity
  8
LAYER_2
 62
     7
100
AcDbLine
 10
-1.232397
 20
-1.11535
 30
0.0
 11
0.041427
 21
0.930348
 31
0.0
  0
ENDBLK
  5
65
100
AcDbEntity
  8
LAYER_2
100
AcDbBlockEnd
  0
BLOCK
  5
68
100
AcDbEntity
  8
LAYER_2
 62
     7
100
AcDbBlockBegin
  2
AI9-BLK8
 70
     0
 10
0.0
 20
0.0
 30
0.0
  3
AI9-BLK8
  1

  0
MTEXT
  5
6C
100
AcDbEntity
  8
LAYER_2
 62
     7
100
AcDbMText
 10
-1.454089
 20
1.189124
 30
0.0
 40
2.362351
 41
0.0
 71
     1
 72
     2
  1
\fUnivers 57 Condensed|b0|i0;   "
  7
STD
210
0.0
220
0.0
230
1.0
 11
1.000001
 21
0.0
 31
0.0
 73
     1
 44
1.0
  0
MTEXT
  5
6B
100
AcDbEntity
  8
LAYER_2
 62
     7
100
AcDbMText
 10
-1.281145
 20
1.069399
 30
0.0
 40
1.049934
 41
0.0
 71
     1
 72
     2
  1
\fUnivers 57 Condensed|b0|i0;1
  7
STD
210
0.0
220
0.0
230
1.0
 11
1.000001
 21
0.0
 31
0.0
 73
     1
 44
1.0
  0
MTEXT
  5
6A
100
AcDbEntity
  8
LAYER_2
 62
     7
100
AcDbMText
 10
-0.491529
 20
-0.060593
 30
0.0
 40
1.049934
 41
0.0
 71
     1
 72
     2
  1
\fUnivers 57 Condensed|b0|i0;4
  7
STD
210
0.0
220
0.0
230
1.0
 11
1.000001
 21
0.0
 31
0.0
 73
     1
 44
1.0
  0
LINE
  5
69
100
AcDbEntity
  8
LAYER_2
 62
     7
100
AcDbLine
 10
-1.232397
 20
-1.11535
 30
0.0
 11
0.041427
 21
0.930348
 31
0.0
  0
ENDBLK
  5
6D
100
AcDbEntity
  8
LAYER_2
100
AcDbBlockEnd
  0
BLOCK
  5
70
100
AcDbEntity
  8
LAYER_2
 62
     7
100
AcDbBlockBegin
  2
AI9-BLK9
 70
     0
 10
0.0
 20
0.0
 30
0.0
  3
AI9-BLK9
  1

  0
MTEXT
  5
74
100
AcDbEntity
  8
LAYER_2
 62
     7
100
AcDbMText
 10
-2.158869
 20
1.189124
 30
0.0
 40
2.362351
 41
0.0
 71
     1
 72
     2
  1
\fUnivers 57 Condensed|b0|i0;1   "
  7
STD
210
0.0
220
0.0
230
1.0
 11
1.000001
 21
0.0
 31
0.0
 73
     1
 44
1.0
  0
MTEXT
  5
73
100
AcDbEntity
  8
LAYER_2
 62
     7
100
AcDbMText
 10
-0.574814
 20
1.069399
 30
0.0
 40
1.049934
 41
0.0
 71
     1
 72
     2
  1
\fUnivers 57 Condensed|b0|i0;5
  7
STD
210
0.0
220
0.0
230
1.0
 11
1.000001
 21
0.0
 31
0.0
 73
     1
 44
1.0
  0
MTEXT
  5
72
100
AcDbEntity
  8
LAYER_2
 62
     7
100
AcDbMText
 10
0.214802
 20
-0.060593
 30
0.0
 40
1.049934
 41
0.0
 71
     1
 72
     2
  1
\fUnivers 57 Condensed|b0|i0;8
  7
STD
210
0.0
220
0.0
230
1.0
 11
1.000001
 21
0.0
 31
0.0
 73
     1
 44
1.0
  0
LINE
  5
71
100
AcDbEntity
  8
LAYER_2
 62
     7
100
AcDbLine
 10
-0.526066
 20
-1.115694
 30
0.0
 11
0.747586
 21
0.930004
 31
0.0
  0
ENDBLK
  5
75
100
AcDbEntity
  8
LAYER_2
100
AcDbBlockEnd
  0
BLOCK
  5
78
100
AcDbEntity
  8
LAYER_2
 62
     7
100
AcDbBlockBegin
  2
AI9-BLK10
 70
     0
 10
0.0
 20
0.0
 30
0.0
  3
AI9-BLK10
  1

  0
MTEXT
  5
79
100
AcDbEntity
  8
LAYER_2
 62
     7
100
AcDbMText
 10
-1.101742
 20
1.18921
 30
0.0
 40
2.362351
 41
0.0
 71
     1
 72
     2
  1
\fUnivers 57 Condensed|b0|i0;1"
  7
STD
210
0.0
220
0.0
230
1.0
 11
1.000001
 21
0.0
 31
0.0
 73
     1
 44
1.0
  0
ENDBLK
  5
7A
100
AcDbEntity
  8
LAYER_2
100
AcDbBlockEnd
  0
BLOCK
  5
7D
100
AcDbEntity
  8
LAYER_2
 62
     7
100
AcDbBlockBegin
  2
AI9-BLK11
 70
     0
 10
0.0
 20
0.0
 30
0.0
  3
AI9-BLK11
  1

  0
MTEXT
  5
81
100
AcDbEntity
  8
LAYER_2
 62
     7
100
AcDbMText
 10
-2.158869
 20
1.18921
 30
0.0
 40
2.362351
 41
0.0
 71
     1
 72
     2
  1
\fUnivers 57 Condensed|b0|i0;1   "
  7
STD
210
0.0
220
0.0
230
1.0
 11
1.000001
 21
0.0
 31
0.0
 73
     1
 44
1.0
  0
MTEXT
  5
80
100
AcDbEntity
  8
LAYER_2
 62
     7
100
AcDbMText
 10
-0.574814
 20
1.069313
 30
0.0
 40
1.049934
 41
0.0
 71
     1
 72
     2
  1
\fUnivers 57 Condensed|b0|i0;5
  7
STD
210
0.0
220
0.0
230
1.0
 11
1.000001
 21
0.0
 31
0.0
 73
     1
 44
1.0
  0
MTEXT
  5
7F
100
AcDbEntity
  8
LAYER_2
 62
     7
100
AcDbMText
 10
0.214802
 20
-0.060679
 30
0.0
 40
1.049934
 41
0.0
 71
     1
 72
     2
  1
\fUnivers 57 Condensed|b0|i0;8
  7
STD
210
0.0
220
0.0
230
1.0
 11
1.000001
 21
0.0
 31
0.0
 73
     1
 44
1.0
  0
LINE
  5
7E
100
AcDbEntity
  8
LAYER_2
 62
     7
100
AcDbLine
 10
-0.526066
 20
-1.115608
 30
0.0
 11
0.747758
 21
0.93009
 31
0.0
  0
ENDBLK
  5
82
100
AcDbEntity
  8
LAYER_2
100
AcDbBlockEnd
  0
ENDSEC
  0
SECTION
  2
ENTITIES
  0
SPLINE
  5
AF
100
AcDbEntity
  8
LAYER_2
 62
     7
100
AcDbSpline
210
0.0
220
0.0
230
1.0
 70
     8
 71
     3
 72
    41
 73
    37
 74
     0
 42
0.00000001
 43
0.00000001
 40
0.0
 40
0.0
 40
0.0
 40
0.0
 40
1.0
 40
1.0
 40
1.0
 40
2.0
 40
2.0
 40
2.0
 40
3.0
 40
3.0
 40
3.0
 40
4.0
 40
4.0
 40
4.0
 40
5.0
 40
5.0
 40
5.0
 40
6.0
 40
6.0
 40
6.0
 40
7.0
 40
7.0
 40
7.0
 40
8.0
 40
8.0
 40
8.0
 40
9.0
 40
9.0
 40
9.0
 40
10.0
 40
10.0
 40
10.0
 40
11.0
 40
11.0
 40
11.0
 40
12.0
 40
12.0
 40
12.0
 40
12.0
 10
92.074999999999989
 20
170.6564222547743
 30
0.0
 10
92.08016764322916
 20
169.85009765624997
 30
0.0
 10
92.076033528645823
 20
151.29877522786458
 30
0.0
 10
92.075172254774301
 20
146.84375
 30
0.0
 10
92.074999999999989
 20
145.96180555555554
 30
0.0
 10
91.281249999999986
 20
146.035358344184
 30
0.0
 10
91.281249999999986
 20
146.035358344184
 30
0.0
 10
91.281249999999986
 20
146.035358344184
 30
0.0
 10
85.761173502604166
 20
146.04999999999998
 30
0.0
 10
85.761173502604166
 20
146.04999999999998
 30
0.0
 10
85.761173502604166
 20
146.04999999999998
 30
0.0
 10
77.81506076388888
 20
111.17460937499999
 30
0.0
 10
77.81506076388888
 20
111.17460937499999
 30
0.0
 10
77.81506076388888
 20
111.17460937499999
 30
0.0
 10
74.662109375
 20
111.17460937499999
 30
0.0
 10
74.662109375
 20
111.17460937499999
 30
0.0
 10
74.662109375
 20
111.17460937499999
 30
0.0
 10
74.677956814236111
 20
104.76776529947915
 30
0.0
 10
74.677956814236111
 20
104.76776529947915
 30
0.0
 10
74.677956814236111
 20
104.76776529947915
 30
0.0
 10
69.849310980902771
 20
104.76776529947915
 30
0.0
 10
69.849310980902771
 20
104.76776529947915
 30
0.0
 10
69.849310980902771
 20
104.76776529947915
 30
0.0
 10
69.84948323567707
 20
149.22499999999999
 30
0.0
 10
69.84948323567707
 20
149.22499999999999
 30
0.0
 10
69.84948323567707
 20
149.22499999999999
 30
0.0
 10
50.799999999999997
 20
149.22499999999999
 30
0.0
 10
50.799999999999997
 20
149.22499999999999
 30
0.0
 10
50.799999999999997
 20
149.22499999999999
 30
0.0
 10
50.799999999999997
 20
171.44999999999999
 30
0.0
 10
50.799999999999997
 20
171.44999999999999
 30
0.0
 10
50.799999999999997
 20
171.44999999999999
 30
0.0
 10
91.281249999999986
 20
171.44999999999999
 30
0.0
 10
91.281249999999986
 20
171.44999999999999
 30
0.0
 10
91.281249999999986
 20
171.44999999999999
 30
0.0
 10
92.074999999999989
 20
171.47756076388887
 30
0.0
 10
92.074999999999989
 20
170.6564222547743
 30
0.0
  0
LINE
  5
AE
100
AcDbEntity
  8
LAYER_2
 62
     7
100
AcDbLine
 10
92.075
 20
106.259492
 30
0.0
 11
92.075
 21
95.955556
 31
0.0
  0
LINE
  5
AD
100
AcDbEntity
  8
LAYER_2
 62
     7
100
AcDbLine
 10
92.075
 20
128.234722
 30
0.0
 11
92.075
 21
109.449306
 31
0.0
  0
LINE
  5
AC
100
AcDbEntity
  8
LAYER_2
 62
     7
100
AcDbLine
 10
85.901389
 20
96.073378
 30
0.0
 11
85.901389
 21
127.646989
 31
0.0
  0
MTEXT
  5
AB
100
AcDbEntity
  8
LAYER_2
 62
     7
100
AcDbMText
 10
45.978589
 20
188.864146
 30
0.0
 40
2.362351
 41
0.0
 71
     1
 72
     2
  1
\fArial|b0|i0;Craftsman Wainscot Cap, WOWC006
  7
STD
210
0.0
220
0.0
230
1.0
 11
1.000001
 21
0.0
 31
0.0
 73
     1
 44
1.0
  0
LINE
  5
AA
100
AcDbEntity
  8
LAYER_2
 62
     7
100
AcDbLine
 10
50.8
 20
143.933333
 30
0.0
 11
50.8
 21
138.377083
 31
0.0
  0
LINE
  5
A9
100
AcDbEntity
  8
LAYER_2
 62
     7
100
AcDbLine
 10
49.036111
 20
104.598611
 30
0.0
 11
41.804167
 21
104.598611
 31
0.0
  0
LINE
  5
A8
100
AcDbEntity
  8
LAYER_2
 62
     7
100
AcDbLine
 10
48.330556
 20
149.225
 30
0.0
 11
42.215683
 21
149.225
 31
0.0
  0
LINE
  5
A7
100
AcDbEntity
  8
LAYER_2
 62
     7
100
AcDbLine
 10
44.273611
 20
157.926794
 30
0.0
 11
44.273611
 21
131.586111
 31
0.0
  0
LINE
  5
A6
100
AcDbEntity
  8
LAYER_2
 62
     7
100
AcDbLine
 10
44.097222
 20
124.530556
 30
0.0
 11
44.097222
 21
101.6
 31
0.0
  0
LINE
  5
A5
100
AcDbEntity
  8
LAYER_2
 62
     7
100
AcDbLine
 10
42.333333
 20
103.011111
 30
0.0
 11
45.508333
 21
106.186111
 31
0.0
  0
LINE
  5
A4
100
AcDbEntity
  8
LAYER_2
 62
     7
100
AcDbLine
 10
42.840451
 20
147.813889
 30
0.0
 11
46.103646
 21
151.077083
 31
0.0
  0
LINE
  5
A3
100
AcDbEntity
  8
LAYER_2
 62
     7
100
AcDbLine
 10
77.963889
 20
103.363889
 30
0.0
 11
77.963889
 21
96.425811
 31
0.0
  0
LINE
  5
A2
100
AcDbEntity
  8
LAYER_2
 62
     7
100
AcDbLine
 10
74.788889
 20
103.540278
 30
0.0
 11
74.788889
 21
96.131944
 31
0.0
  0
LINE
  5
A1
100
AcDbEntity
  8
LAYER_2
 62
     7
100
AcDbLine
 10
70.026389
 20
103.363889
 30
0.0
 11
70.026389
 21
96.249422
 31
0.0
  0
LINE
  5
A0
100
AcDbEntity
  8
LAYER_2
 62
     7
100
AcDbLine
 10
77.247998
 20
97.414898
 30
0.0
 11
78.662554
 21
98.829454
 31
0.0
  0
LINE
  5
9F
100
AcDbEntity
  8
LAYER_2
 62
     7
100
AcDbLine
 10
85.106605
 20
97.012511
 30
0.0
 11
86.813995
 21
98.7199
 31
0.0
  0
LINE
  5
9E
100
AcDbEntity
  8
LAYER_2
 62
     7
100
AcDbLine
 10
91.329826
 20
96.885731
 30
0.0
 11
92.953672
 21
98.509405
 31
0.0
  0
LINE
  5
9D
100
AcDbEntity
  8
LAYER_2
 62
     7
100
AcDbLine
 10
74.01891
 20
97.398017
 30
0.0
 11
75.475324
 21
98.854259
 31
0.0
  0
LINE
  5
9C
100
AcDbEntity
  8
LAYER_2
 62
     7
100
AcDbLine
 10
69.25641
 20
97.322569
 30
0.0
 11
70.921769
 21
98.987929
 31
0.0
  0
LINE
  5
9B
100
AcDbEntity
  8
LAYER_2
 62
     7
100
AcDbLine
 10
95.823092
 20
104.775
 30
0.0
 11
102.981828
 21
104.775
 31
0.0
  0
LINE
  5
9A
100
AcDbEntity
  8
LAYER_2
 62
     7
100
AcDbLine
 10
87.665278
 20
104.775
 30
0.0
 11
94.544272
 21
104.775
 31
0.0
  0
LINE
  5
99
100
AcDbEntity
  8
LAYER_2
 62
     7
100
AcDbLine
 10
87.709375
 20
111.257292
 30
0.0
 11
94.323958
 21
111.257292
 31
0.0
  0
LINE
  5
98
100
AcDbEntity
  8
LAYER_2
 62
     7
100
AcDbLine
 10
91.3989
 20
104.054975
 30
0.0
 11
92.986228
 21
105.642131
 31
0.0
  0
LINE
  5
97
100
AcDbEntity
  8
LAYER_2
 62
     7
100
AcDbLine
 10
90.840278
 20
110.110764
 30
0.0
 11
93.133333
 21
112.403819
 31
0.0
  0
LINE
  5
96
100
AcDbEntity
  8
LAYER_2
 62
     7
100
AcDbLine
 10
98.954167
 20
154.751794
 30
0.0
 11
98.954167
 21
129.998611
 31
0.0
  0
LINE
  5
95
100
AcDbEntity
  8
LAYER_2
 62
     7
100
AcDbLine
 10
98.865972
 20
123.913194
 30
0.0
 11
98.865972
 21
102.834722
 31
0.0
  0
LINE
  5
94
100
AcDbEntity
  8
LAYER_2
 62
     7
100
AcDbLine
 10
97.63125
 20
103.672569
 30
0.0
 11
99.924306
 21
105.965625
 31
0.0
  0
LINE
  5
93
100
AcDbEntity
  8
LAYER_2
 62
     7
100
AcDbLine
 10
97.807639
 20
144.859375
 30
0.0
 11
100.100694
 21
147.152431
 31
0.0
  0
LINE
  5
92
100
AcDbEntity
  8
LAYER_2
 62
     7
100
AcDbLine
 10
98.895428
 20
173.537211
 30
0.0
 11
98.895428
 21
160.190739
 31
0.0
  0
LINE
  5
91
100
AcDbEntity
  8
LAYER_2
 62
     7
100
AcDbLine
 10
97.748728
 20
170.244906
 30
0.0
 11
100.041783
 21
172.537961
 31
0.0
  0
LINE
  5
90
100
AcDbEntity
  8
LAYER_2
 62
     7
100
AcDbLine
 10
49.153761
 20
174.74265
 30
0.0
 11
68.674017
 21
174.74265
 31
0.0
  0
LINE
  5
8F
100
AcDbEntity
  8
LAYER_2
 62
     7
100
AcDbLine
 10
75.553183
 20
174.801389
 30
0.0
 11
93.78015
 21
174.801389
 31
0.0
  0
LINE
  5
8E
100
AcDbEntity
  8
LAYER_2
 62
     7
100
AcDbLine
 10
90.869733
 20
173.684489
 30
0.0
 11
93.162789
 21
175.977544
 31
0.0
  0
LINE
  5
8D
100
AcDbEntity
  8
LAYER_2
 62
     7
100
AcDbLine
 10
49.771122
 20
173.655033
 30
0.0
 11
52.064178
 21
175.948089
 31
0.0
  0
LINE
  5
8C
100
AcDbEntity
  8
LAYER_2
 62
     7
100
AcDbLine
 10
44.332178
 20
174.095661
 30
0.0
 11
44.332178
 21
162.865683
 31
0.0
  0
LINE
  5
8B
100
AcDbEntity
  8
LAYER_2
 62
     7
100
AcDbLine
 10
43.068172
 20
170.244733
 30
0.0
 11
45.361228
 21
172.537789
 31
0.0
  0
LINE
  5
8A
100
AcDbEntity
  8
LAYER_2
 62
     7
100
AcDbLine
 10
48.947917
 20
140.49375
 30
0.0
 11
56.503183
 21
140.49375
 31
0.0
  0
LINE
  5
89
100
AcDbEntity
  8
LAYER_2
 62
     7
100
AcDbLine
 10
49.432986
 20
139.259028
 30
0.0
 11
52.078819
 21
141.904861
 31
0.0
  0
LINE
  5
88
100
AcDbEntity
  8
LAYER_2
 62
     7
100
AcDbLine
 10
93.824075
 20
145.932178
 30
0.0
 11
100.438831
 21
145.932178
 31
0.0
  0
LINE
  5
87
100
AcDbEntity
  8
LAYER_2
 62
     7
100
AcDbLine
 10
94.177025
 20
171.479283
 30
0.0
 11
100.791781
 21
171.479283
 31
0.0
  0
LINE
  5
86
100
AcDbEntity
  8
LAYER_2
 62
     7
100
AcDbLine
 10
42.200869
 20
171.449828
 30
0.0
 11
48.815625
 21
171.449828
 31
0.0
  0
LINE
  5
85
100
AcDbEntity
  8
LAYER_2
 62
     7
100
AcDbLine
 10
50.91765
 20
176.565106
 30
0.0
 11
50.91765
 21
172.214122
 31
0.0
  0
LINE
  5
84
100
AcDbEntity
  8
LAYER_2
 62
     7
100
AcDbLine
 10
92.104456
 20
176.77095
 30
0.0
 11
92.104456
 21
172.420139
 31
0.0
  0
LINE
  5
83
100
AcDbEntity
  8
LAYER_2
 62
     7
100
AcDbLine
 10
63.720486
 20
140.49375
 30
0.0
 11
68.453703
 21
140.49375
 31
0.0
  0
INSERT
  5
7C
100
AcDbEntity
  8
LAYER_2
 62
     7
100
AcDbBlockReference
  2
AI9-BLK11
 10
71.95013
 20
174.798547
 30
0.0
  0
INSERT
  5
77
100
AcDbEntity
  8
LAYER_2
 62
     7
100
AcDbBlockReference
  2
AI9-BLK10
 10
98.896634
 20
157.397542
 30
0.0
  0
INSERT
  5
6F
100
AcDbEntity
  8
LAYER_2
 62
     7
100
AcDbBlockReference
  2
AI9-BLK9
 10
99.248033
 20
127.059083
 30
0.0
  0
INSERT
  5
67
100
AcDbEntity
  8
LAYER_2
 62
     7
100
AcDbBlockReference
  2
AI9-BLK8
 10
89.252347
 20
97.895661
 30
0.0
  0
INSERT
  5
5F
100
AcDbEntity
  8
LAYER_2
 62
     7
100
AcDbBlockReference
  2
AI9-BLK7
 10
82.314442
 20
98.130961
 30
0.0
  0
LINE
  5
5D
100
AcDbEntity
  8
LAYER_2
 62
     7
100
AcDbLine
 10
83.987122
 20
97.80316
 30
0.0
 11
87.596376
 21
97.80316
 31
0.0
  0
LINE
  5
5C
100
AcDbEntity
  8
LAYER_2
 62
     7
100
AcDbLine
 10
90.459595
 20
97.637796
 30
0.0
 11
94.068849
 21
97.637796
 31
0.0
  0
LINE
  5
5B
100
AcDbEntity
  8
LAYER_2
 62
     7
100
AcDbLine
 10
76.906417
 20
98.139746
 30
0.0
 11
80.306382
 21
98.139746
 31
0.0
  0
INSERT
  5
54
100
AcDbEntity
  8
LAYER_2
 62
     7
100
AcDbBlockReference
  2
AI9-BLK6
 10
76.452095
 20
94.919443
 30
0.0
  0
INSERT
  5
4C
100
AcDbEntity
  8
LAYER_2
 62
     7
100
AcDbBlockReference
  2
AI9-BLK5
 10
72.603751
 20
98.200208
 30
0.0
  0
LINE
  5
4A
100
AcDbEntity
  8
LAYER_2
 62
     7
100
AcDbLine
 10
69.146856
 20
98.09806
 30
0.0
 11
71.082827
 21
98.09806
 31
0.0
  0
LINE
  5
49
100
AcDbEntity
  8
LAYER_2
 62
     7
100
AcDbLine
 10
74.103832
 20
98.139746
 30
0.0
 11
75.53768
 21
98.139746
 31
0.0
  0
INSERT
  5
42
100
AcDbEntity
  8
LAYER_2
 62
     7
100
AcDbBlockReference
  2
AI9-BLK4
 10
59.761813
 20
140.514851
 30
0.0
  0
INSERT
  5
3A
100
AcDbEntity
  8
LAYER_2
 62
     7
100
AcDbBlockReference
  2
AI9-BLK3
 10
44.45
 20
127.970311
 30
0.0
  0
INSERT
  5
32
100
AcDbEntity
  8
LAYER_2
 62
     7
100
AcDbBlockReference
  2
AI9-BLK2
 10
44.919997
 20
160.102458
 30
0.0
  0
INSERT
  5
2A
100
AcDbEntity
  8
LAYER_2
 62
     7
100
AcDbBlockReference
  2
AI9-BLK1
 10
92.662819
 20
107.773783
 30
0.0
  0
ENDSEC
  0
SECTION
  2
OBJECTS
  0
DICTIONARY
  5
19
100
AcDbDictionary
280
     0
281
     1
  3
ACAD_GROUP
350
1A
  3
ACAD_MLINESTYLE
350
1B
  3
ACAD_LAYOUT
350
1E
  3
ACAD_PLOTSETTINGS
350
22
  3
ACAD_PLOTSTYLENAME
350
1F
  3
ACAD_WIPEOUT_VARS
350
23
  0
DICTIONARY
  5
1A
102
{ACAD_REACTORS
330
19
102
}
100
AcDbDictionary
280
     0
281
     1
  0
DICTIONARY
  5
1B
102
{ACAD_REACTORS
330
19
102
}
100
AcDbDictionary
280
     0
281
     1
  3
Standard
350
1C
  0
MLINESTYLE
  5
1C
102
{ACAD_REACTORS
330
1B
102
}
100
AcDbMlineStyle
  2
Standard
 70
     0
  3

 62
     0
 51
90.0
 52
90.0
 71
     2
 49
0.5
 62
   256
  6
BYLAYER
 49
-0.5
 62
   256
  6
BYLAYER
  0
ACDBDICTIONARYWDFLT
  5
1F
102
{ACAD_REACTORS
330
19
102
}
100
AcDbDictionary
281
     1
  3
Normal
350
1D
100
AcDbDictionaryWithDefault
340
1D
  0
ACDBPLACEHOLDER
  5
1D
102
{ACAD_REACTORS
330
1F
102
}
  0
LAYOUT
  5
20
102
{ACAD_REACTORS
330
1E
102
}
100
AcDbPlotSettings
  1

  2

  4

  6

 40
0.0
 41
0.0
 42
0.0
 43
0.0
 44
0.0
 45
0.0
 46
0.0
 47
0.0
 48
0.0
 49
0.0
140
0.0
141
0.0
142
1.0
143
1.0
 70
  1024
 72
     0
 73
     0
 74
     0
  7

 75
     0
147
1.0
148
0.0
149
0.0
100
AcDbLayout
  1
Model
 70
     0
 71
     0
 10
0.0
 20
0.0
 11
0.0
 21
0.0
 12
0.0
 22
0.0
 32
0.0
 14
0.0
 24
0.0
 34
0.0
 15
0.0
 25
0.0
 35
0.0
146
0.0
 13
0.0
 23
0.0
 33
0.0
 16
0.0
 26
0.0
 36
0.0
 17
0.0
 27
0.0
 37
0.0
 76
     0
330
A
331
0
345
0
346
0
  0
LAYOUT
  5
21
102
{ACAD_REACTORS
330
1E
102
}
100
AcDbPlotSettings
  1

  2

  4

  6

 40
0.0
 41
0.0
 42
0.0
 43
0.0
 44
0.0
 45
0.0
 46
0.0
 47
0.0
 48
0.0
 49
0.0
140
0.0
141
0.0
142
1.0
143
1.0
 70
     0
 72
     0
 73
     0
 74
     0
  7

 75
     0
147
1.0
148
0.0
149
0.0
100
AcDbLayout
  1
Layout1
 70
     0
 71
     0
 10
0.0
 20
0.0
 11
0.0
 21
0.0
 12
0.0
 22
0.0
 32
0.0
 14
0.0
 24
0.0
 34
0.0
 15
0.0
 25
0.0
 35
0.0
146
0.0
 13
0.0
 23
0.0
 33
0.0
 16
0.0
 26
0.0
 36
0.0
 17
0.0
 27
0.0
 37
0.0
 76
     0
330
B
331
0
345
0
346
0
  0
DICTIONARY
  5
1E
102
{ACAD_REACTORS
330
19
102
}
100
AcDbDictionary
280
     0
281
     1
  3
Layout1
350
21
  3
Model
350
20
  0
DICTIONARY
  5
22
102
{ACAD_REACTORS
330
19
102
}
100
AcDbDictionary
280
     0
281
     1
  0
WIPEOUTVARIABLES
  5
23
100
AcDbWipeoutVariables
 70
     1
  0
ENDSEC
  0
EOF
